>
 >
David Courtney

David Courtney Guitar Tabs

Rancid - David Courtney chords, tabs, tablatures, lyrics

Guitar lessons | Add/correct | Request | Top 50 tabs Artists:  A B C D E F G H I J K L M N O P Q R S T U V W X Y Z 0-9

David Courtney Guitar Tabs – Rancid

CD, Sheet music, Poster

Do you like David Courtney? Share with your friends now
Bass TabsTabsTabs v2
RANCID - David Courtney

By Guilherme Zakka

Enjoy!




Intro (2x)

e-------------------55------------3-33------55------77------55-----
B-------------------77------------3-33------77------99------55-----
G-7-77-00---------7-77------------4-44----7-77-00-9-99-00---66-----
D-7-77-00-7-77-00-7-77-00-5-55-55-5-55-00-7-77-00-9-99-00-7-77-00--
A-5-55-00-7-77-00-5-55-00-5-55-55-5-55-00-5-55-00-7-77-00-7-77-00--
E---------5-55-00------00-3-33-33-3-33-00-----------------5-55-00--
       **      **      **      **      **      **      **      **   

* - Those notes are to be played fast and, all in all, are just
    junctions to the chords, so, you dont really dont need to play them



Verse (2x) - 0:15

e----555----555----555--------3--333-5--555-7--777-5--555-----------
B----777----555----777--------3--333-7--777-9--999-5--555-----------
G-7--777----666-7--777--------4--444-7--777-9--999-6--666-----------
D-7--777-7--777-7--777-5--555-5--555-7--777-9--999-7--777-----------
A-5--555-7--777-5--555-5--555-5--555-5--555-7--777-7--777-----------
E--------5--555--------3--333-3--333---------------5--555-----------
     ***    ***    ***    ***    ***    ***    ***    ***

* - Kind of a mix of Palm-mute and rake (The famous "XXXXX")


Pre-Chorus (1x) - 0:29

e----------------------2-2-2------------------------------
B--------4-4-4---------2-2-2------------------------------
G-4-4-4--4-4-4--4-4-4--3-3-3------------------------------
D-5-5-5--4-4-4--5-5-5--4-4-4------------------------------
A-5-5-5--2-2-2--5-5-5--4-4-4------------------------------
E-3-3-3---------3-3-3--2-2-2------------------------------


Chorus (2x) - 0:43

e-------------------55------------3-33------55------77------55-----
B-------------------77------------3-33------77------99------55-----
G-7-77-00---------7-77------------4-44----7-77-00-9-99-00---66-----
D-7-77-00-7-77-00-7-77-00-5-55-55-5-55-00-7-77-00-9-99-00-7-77-00--
A-5-55-00-7-77-00-5-55-00-5-55-55-5-55-00-5-55-00-7-77-00-7-77-00--
E---------5-55-00------00-3-33-33-3-33-00-----------------5-55-00--
       **      **      **      **      **      **      **      **   

*- Same thing of the Intro


Verse (2x) - 0:58

e----555----555----555--------3--333-5--555-7--777-5--555-----------
B----777----555----777--------3--333-7--777-9--999-5--555-----------
G-7--777----666-7--777--------4--444-7--777-9--999-6--666-----------
D-7--777-7--777-7--777-5--555-5--555-7--777-9--999-7--777-----------
A-5--555-7--777-5--555-5--555-5--555-5--555-7--777-7--777-----------
E--------5--555--------3--333-3--333---------------5--555-----------
     ***    ***    ***    ***    ***    ***    ***    ***

*Same thing of the other verse...



Pre-Chorus (1x) - 1:13

e----------------------2-2-2------------------------------
B--------4-4-4---------2-2-2------------------------------
G-4-4-4--4-4-4--4-4-4--3-3-3------------------------------
D-5-5-5--4-4-4--5-5-5--4-4-4------------------------------
A-5-5-5--2-2-2--5-5-5--4-4-4------------------------------
E-3-3-3---------3-3-3--2-2-2------------------------------



Chorus (2x) - 1:27

e-------------------55------------3-33------55------77------55-----
B-------------------77------------3-33------77------99------55-----
G-7-77-00---------7-77------------4-44----7-77-00-9-99-00---66-----
D-7-77-00-7-77-00-7-77-00-5-55-55-5-55-00-7-77-00-9-99-00-7-77-00--
A-5-55-00-7-77-00-5-55-00-5-55-55-5-55-00-5-55-00-7-77-00-7-77-00--
E---------5-55-00------00-3-33-33-3-33-00-----------------5-55-00--
       **      **      **      **      **      **      **      **   

*- Same thing of the Intro


Solo - 1:43

Well, this one  is very improvised, but I'll try tab it.
Play it alternate picked and play it fast, it's all that matters :P

e--------------------------------------------------------------------
B---------------------------------------6-7-8-7-6---6---10b----10b-9b
G-5-7-5-7-5-7p5---5-7-5-7-5-7p5---5-6-7-----------7-----9----9-------
D---------------5---------------5------------------------------------
A--------------------------------------------------------------------
E--------------------------------------------------------------------

e--------------------------------------------------------------------
B-8-7-6----------------------------------------5---------------------
G-------7-6-5-----------5-6-7----5-7-5-5-7p5---5-7-5-7-5-7p5---------
D-------------7-6-5-6-7-----7----------------7---------------5-------
A--------------------------------------------------------------------
E--------------------------------------------------------------------

e---------------------10-10-10-10-10-9-8-10-9-8----------------------
B-5---------------7~--10-10-10-10---------------10-9-8-10-9-8--------
G-5-7-5-7-5-7p5-7---------------------------------------------9-8-7--
D---------------7----------------------------------------------------
A--------------------------------------------------------------------
E--------------------------------------------------------------------

e-------------------------
B-------------------------
G-----------7~~-----------
D-9-8-7-8-9---------------
A-------------------------
E-------------------------



Bridge (1:56)

e-3-333------------------
B-3-333------------------
G-4-444--444-222-222-222-
D-5-555--444-222-222-222-   3 times
A-5-555--222-000-444-000-
E-3-333------------------
    ***

e-3-333--2---------------
B-3-333--2---------------
G-4-444--3---------------
D-5-555--4---------------    1 time
A-5-555--4---------------
E-3-333--2---------------
    ***

* - palm-muted



Chorus (2x) - 2:26

e-------------------55------------3-33------55------77------55-----
B-------------------77------------3-33------77------99------55-----
G-7-77-00---------7-77------------4-44----7-77-00-9-99-00---66-----
D-7-77-00-7-77-00-7-77-00-5-55-55-5-55-00-7-77-00-9-99-00-7-77-00--
A-5-55-00-7-77-00-5-55-00-5-55-55-5-55-00-5-55-00-7-77-00-7-77-00--
E---------5-55-00------00-3-33-33-3-33-00-----------------5-55-00--
       **      **      **      **      **      **      **      **   


On this chorus, at the first time, just play the chords once!

*- You Know...


End (2:41)

e--------------
B--------------
G-7------------
D-7------------
A-5------------
E--------------





Comments


Popular Rancid tabs & chords
Corazon De Oro 2 Bass Tabs
Hyena Bass Tabs
Old Friend 4 Bass Tabs
The Way I Feel Chords
11th Hour 1 Tabs
Cash Culture And Violence Tabs
Dope Sick, Girl 1 Tabs
Fall Back Down 2 Tabs
Fall Back Down 6 Tabs
Sabrina Tabs


Song lyrics



↑ Back to top | Tablatures and chords are parodies/interpretations of the original songs. You may use it for private study, scholarship, research or language learning purposes only
© 2014 AZChords.com Contact us | Privacy policy | DMCA | Add/correct tabs | Request tabs | Top 50 tabs