» » »

Rancid, Daly City Train Tabs (ver.2)

Artists:  A B C D E F G H I J K L M N O P Q R S T U V W X Y Z # 

Daly City Train Tabs (ver.2)

Rancid Tabs
 Rating:
4/5 (4 votes)
Daly City Train lessons Tabs too difficult? Try these video lessons and learn fast
1
                     RANCID - DALY CITY TRAIN
RIFF A
|-x3x3x3x3x3x3x3-x1x1x1x1x1x1x1x1-
|-x3x3x3x3x3x3x3-x1x1x1x1x1x1x1x1-
|-x4x4x4x4x4x4x4-x2x2x2x2x2x2x2x2-
|-x5x5x5x5x5x5x5-x3x3x3x3x3x3x3x3-
|---------------------------------
|---------------------------------

-x3x3x3x3x3x3x3x3-x3x3x3x3x3x3x3x3-|
-x5x5x5x5x5x5x5x5-x3x3x3x3x3x3x3x3-|
-x5x5x5x5x5x5x5x5-x4x4x4x4x4x4x4x4-|
-x5x5x5x5x5x5x5x5-x5x5x5x5x5x5x5x5-|
-----------------------------------|
-----------------------------------|

RIFF B
|---------------------------------
|---------------------------------
|---------------------------------
|-5--------------3h5--------------
|---------------------------------
|---------------------------------

---------------------------------|
---------------------------------|
---------------------5^5^5^5^-3--|
-3h5-----------------------------|
---------------------------------|
---------------------------------|

SOLO
|-----------------------------------|
|-----------------------------------|
|---7--77777777-6--------5----------|
|-0---------------7---77---777777-5-|
|-----------------------------------|
|-----------------------------------|

RIFF C
|-x1x1x1x1-x1x1x1x1-x3x3x3x3x3x3x3x3-|
|-x1x1x1x1-x3x3x3x3-x3x3x3x3x3x3x3x3-|
|-x2x2x2x2-x3x3x3x3-x4x4x4x4x4x4x4x4-|
|-x3x3x3x3-x3x3x3x3-x5x5x5x5x5x5x5x5-|
|------------------------------------|
|------------------------------------|

RIFF D
|----------------|
|----------------|
|-5--------------|
|-5-3-5--3-3-5-5-|
|-3-3-5--3-3-5-3-|
|---1-3--1-1-3-1-|

RIFF A      X4
RIFF A      X2
RIFF A+B    X4
RIFF A      X4
RIFF A+B    X4
RIFF A+Solo X2
RIFF C      X2
RIFF D
RIFF A+B    X4
RIFF D
            
Submit corrections

comments powered by Disqus
↑ Back to top | Rancid Tabs for Daly City Train. Lyrics for acoustic guitar and electric guitar. 1 Tablatures and chords are parodies/interpretations of the original songs. You may use it for private study, scholarship, research or language learning purposes only