» » »

Rancid, Blood Clot Tabs (ver.2)

Artists:  A B C D E F G H I J K L M N O P Q R S T U V W X Y Z # 

Blood Clot Tabs (ver.2)

Rancid Tabs
Rating:
4/5 (5 votes)
Blood Clot lessons Tabs too difficult? Try these video lessons and learn fast
                Intro
E|---------------------------------
B|---------------------------------
G|-10-10-10-10-10-8-8-8------------
D|-10-10-10-10-10-8-8-8-8-8-8-8---- x4
A|-8--8--8--8--8--6-6-6-8-8-8-8----
E|----------------------6-6-6-6----

Verse
E|-------------------------------------
B|-------------------------------------
G|-10-10-10----8-10-10--10-10-10-8-10-8
D|----------10------------------------- x4
A|-------------------------------------
E|-------------------------------------

Pre Chorus
E|--------------------------------------
B|--------------------------------------
G|-10-10-10-8-8-8-----------------------
D|-10-10-10-8-8-8-8-8-8-3-3-------------
A|-8--8--8--6-6-6-8-8-8-3-3-------------
E|----------------6-6-6-1-1-------------

Chorus
E|----------------------------------------------
B|----------------------------------------------
G|-7-----5-----7------------------5-5-5-5-5-5---
D|-7-x12-5-x12-7-x12-8-8-8-8-8-8--5-5-5-5-5-5---
A|-5-----3-----5-----8-8-8-8-8-8--3-3-3-3-3-3---
E|-------------------6-6-6-6-6-6----------------

Intro
Verse
Pre Chorus
Chorus

Break
E|---------------------------------------------
B|---------------------------------------------
G|-10-10-------8-8-------10-10-------8-8-------
D|-10-10-slide-8-8-slide-10-10-slide-8-8-slide-
A|-8--8--------6-6-------8--8--------6-6-------
E|---------------------------------------------

E|---------------------------------------------
B|---------------------------------------------
G|-10-10-------8-8-------10-10-------8-8-------
D|-10-10-slide-8-8-slide-10-10-slide-8-8-------
A|-8--8--------6-6-------8--8--------6-6-------
E|---------------------------------------------

Chorus

Bridge
E|------------6-6--6-6-6-6----------------
B|-----8—-8---6-6--6-6-6-6----------------
G|-----10-10--7-7--7-7-7-7----------------
D|-----10-10--8-8--8-8-8-8----------------
A|--8-------------------------------------
E|----------------------------------------

When Lars starts singing stop playing.
E|------------------------------
B|------------------------------
G|---8--------------------------
D|---8-8------------------------
A|---6-8------------------------
E|-----6------------------------

Intro x2 but at the end of the song, play first chord and slide to nut.
            

comments powered by Disqus
↑ Back to top | Rancid Tabs for Blood Clot. Lyrics for acoustic guitar and electric guitar. Tablatures and chords are parodies/interpretations of the original songs. You may use it for private study, scholarship, research or language learning purposes only