» » »

Rancid, Black Lung Bass tabs (ver.2)

Artists:  A B C D E F G H I J K L M N O P Q R S T U V W X Y Z # 

Black Lung Bass tabs (ver.2)

Rancid Tabs
 Rating:
4/5 (7 votes)
Black Lung lessons Tabs too difficult? Try these video lessons and learn fast
1
                - Rancid - Black Lung

__________
Intro
G|--------------------|----|
D|-------------1-31---|----|
A|---3----5--33-3--31-|-6x-|
E|-44-4-33-3----------|----|

Verse
G|-------------------------------------|----|
D|--------------31---------------------|----|
A|----------4444--41-33333333-3311-----|-2x-|
E|-11111134-----------------------4433-|----|

Chorus
G|-------------------------------------|----|
D|-------------------------------------|----|
A|----------11111113-44444313----------|-2x-|
E|-11111113-------------------44443344-|----|

G|-------------------|----|
D|-------------------|----|
A|-11111113-44444313-|-1x-|
E|-------------------|----|

Intro
G|--------------------|----|
D|-------------1-31---|----|
A|---3----5--33-3--31-|-4x-|
E|-44-4-33-3----------|----|

Verse
G|-------------------------------------|----|
D|--------------31---------------------|----|
A|----------4444--41-33333333-3311-----|-2x-|
E|-11111134-----------------------4433-|----|

Chorus
G|-------------------------------------|----|
D|-----------------------31------------|----|
A|----------11111113-4-44--41----------|-2x-|
E|-11111113-------------------44443344-|----|

G|---------------------|----|
D|---------------------|----|
A|-11111113-44444313---|-1x-|
E|-------------------3-|----|

Bridge I
G|--------------------|----|
D|-------------1-31---|----|
A|---3----5--33-3--31-|-1x-|
E|-44-4-33-3----------|----|

G|--------------------|----|
D|-------------1-53---|----|
A|---3----5--33-3--53-|-1x-|
E|-44-4-33-3----------|----|

Bridge II
G|-------3-5-|----|
D|---3355----|----|
A|-33--------|-8x-|
E|-----------|----|

Chorus
G|-------------------------------------|----|
D|-----------------------31------------|----|
A|----------11111113-4-44--41----------|-2x-|
E|-11111113-------------------44443344-|----|

G|---------------------|----|
D|---------------------|----|
A|-11111113-44444313---|-1x-|
E|-------------------3-|----|

Ending
G|--------------------|----|
D|-------------1-31---|----|
A|---3----5--33-3--31-|-1x-|
E|-44-4-33-3----------|----|

G|-------------|----|
D|-------------|----|
A|---3----5--3-|-1x-|
E|-44-4-33-3---|----|
            
Submit corrections

comments powered by Disqus
↑ Back to top | Rancid Bass for Black Lung. Lyrics for acoustic guitar and electric guitar. 1 Tablatures and chords are parodies/interpretations of the original songs. You may use it for private study, scholarship, research or language learning purposes only