» » »

Black Hawk Down Bass tabs (ver.2)

Artists:  A B C D E F G H I J K L M N O P Q R S T U V W X Y Z # 

Black Hawk Down Bass tabs (ver.2)

Rancid
Rating:
0/5 (0 votes)

Hard to play? Try these video lessons and learn fast.
                Blackhawk Down
Rancid
Rancid (2000)


Intro/verse
G|-------------------------------------------------------------------|
D|-6---------335566---3---3-------------------335566-------33--33558-|
A|---33445566-------4---4--33445566-----335566---------3344--66------|
E|----------------------------------4466-------------66--------------|

|-----------------------------------------------------------------------------|
|-66666666-44444444-33333333--22222222-----------------------1111-------------|
|-------------------------------------------------------1111------------------|
|-------------------------------------44444444-11111111-----------44444444--6-|


Chorus
|-----------------------------------------------------------------------|
|-------------------------------------------------------------------4-5-|
|------------------44444444------------------------------------6666-----|
|-4444444444444444----------44444444-4444444444444444-66666666----------|


|--------------------------------------------------------------------------|
|-66666666-44444444-33333333-22222222------------------------1111----------|
|-------------------------------------------------------1111---------------|
|-------------------------------------44444444-11111111-----------44444444-|


verse

chorus

verse

chorus


then
|-------------------------------------|
|------------------------1111---------|
|-------------------1111--------------|
|-44444444-11111111----------44444444-|


Outro
|------------------------------------------------------------------------|
|------------------------------------------------------------------------|
|-----------------------------------66666666666666666666666666666666-4-5-|
|-666666666666666666666666666666-45--------------------------------------|

|----------------------------------------------------|
|-666666666666666666666666666666666666666666666666-6-|
|----------------------------------------------------|
|----------------------------------------------------|


end
            
Hard to play? Try these video lessons and learn fast. | Correct




comments powered by Disqus
↑ Back to top | Tablatures and chords are parodies/interpretations of the original songs. You may use it for private study, scholarship, research or language learning purposes only