>
 >
Backslide

Backslide Guitar Tabs

Rancid - Backslide chords, tabs, tablatures, lyrics

Guitar lessons | Add/correct | Request | Top 50 tabs Artists:  A B C D E F G H I J K L M N O P Q R S T U V W X Y Z 0-9

Backslide Guitar Tabs – Rancid

CD, Sheet music, Poster

Do you like Backslide? Share with your friends now
Bass TabsTabs
----------------------------------------------------------------------------
----------------------------------------------------------------------------
- I cant believe no one's tabbed this.  This is a song off of
Life Won't Wait.  My friend tought me this back when I was first learning
to play guitar so I figured I'd put it up for ol' time sake. Enjoy
--really easy song, but NO solo yet!! sorry.
---ALSO, at the bottom is a 'just chords' version that's easy to read.

Tuning: Standard

NOTE: I'm not going to show strumming. Just listen for changes.

Intro/ Verse
    G5          or   G
e|-------------------3------------------------------------------------------|
B|-------------------3------------------------------------------------------|
G|-------------------0------------------------------------------------------|
D|---5---------------0------------------------------------------------------|
A|---5---------------2------------------------------------------------------|
E|---3---------------3------------------------------------------------------|

Pre-Chorus  (I'll put the classical chords in parenthesis. PLAY EITHER)
   C5  C   D5   D
e|----(0)------(2)----------------------------------------------------------|
B|----(1)------(3)----------------------------------------------------------|
G|-5--(0)--7---(2)----Play this 4 times. On last time, play C twice, then D-|
D|-5--(2)--7---(0)----------------------------------------------------------|
A|-3--(3)--5----------------------------------------------------------------|
E|----(0)-------------------------------------------------------------------|

Chorus
- Once again, classical chords in parenthesis. Play either.
    G5   G     A5   Am    C5    C    G5   G
e|------(3)--------(0)---------(0)-------(3)--------------------------------|
B|------(3)--------(1)---------(1)-------(3)--------------------------------|
G|------(0)--------(2)----5----(0)-------(0)--------------------------------|
D|--5---(0)----7---(2)----5----(2)---5---(0)--------------------------------|
A|--5---(2)----7---(0)----3----(3)---5---(2)--------------------------------|
E|--3---(3)----5---------------(0)---3---(3)--------------------------------|

Then back to verse, prechorus, and chorus

Bridge - I'll only show the classical for F (in parenthesis)

     C   F     A    C    G   A   G   C   A   G   C   G
e|---------(1)--------------------------------------------------------------|
B|---------(1)--------------------------------------------------------------|
G|---5-----(2)------5----------------5-----------5--------------------------|
D|---5---3-(3)-7----5----5---7---5---5---7---5---5---5----------------------|
A|---3---3-(3)-7----3----5---7---5---3---7---5---3---5----------------------|
E|-------1-(1)-5---------3---5---3-------5---3-------3----------------------|


Solo - Rhythm (I'm not 100% on this, so I'll change it when I find something
better) And I'm not showing the classical chords, you should know them by
now. I'll show how many strums next to the chord name.

     C (8x) F (8x) G (16x) C (8x) F (8x) G (32X)
e|--------------------------------------------------------------------------|
B|--------------------------------------------------------------------------|
G|---5--------------------5-------------------------------------------------|
D|---5------3-----5-------5-------3------5----------------------------------|
A|---3------3-----5-------3-------3------5----------------------------------|
E|----------1-----3---------------1------3----------------------------------|

Rest of the song is the chorus!
Here is just the chords and layout:

Intro/Verse: G (repeat as necessary)

Prechorus: C - D - C - D - C - D - C - C - D

Chorus: G - Am - C - G (repeat as necessary)

Intro/Verse, Prechorus, Chorus again

Bridge: C - F - Am - C - G - Am - G - C - Am - G - C - G

Solo-Rhythm: C - F - G - C - F - G

Then Chorus until end.





Comments


Popular Rancid tabs & chords
Dope Sick Girl Bass Tabs
Red Hot Moon Bass Tabs
Junkyard Chords
Lady Liberty Chords
11th Hour Tabs
Adina Tabs
Lock Step Gone 1 Tabs
Olympia WA 2 Tabs
Radio 1 Tabs
Roots Radicals Ukulele


Song lyrics



↑ Back to top | Tablatures and chords are parodies/interpretations of the original songs. You may use it for private study, scholarship, research or language learning purposes only
© 2014 AZChords.com Contact us | Privacy policy | DMCA | Add/correct tabs | Request tabs | Top 50 tabs