» » »

Rancid, Backslide Bass tabs (ver.1)

Artists:  A B C D E F G H I J K L M N O P Q R S T U V W X Y Z # 

Backslide Bass tabs (ver.1)

Rancid Tabs
Rating:
0/5 (0 votes)
Backslide lessons Tabs too difficult? Try these video lessons and learn fast
                Intro
G|---------------------------|
D|-5~---2-5~-3h5-3-----------|
A|----5------------5-3-2-3-5-|
E|---------------------------|

Verse
G|-------------------|
D|---5---------------|
A|-----5-3-5-3-2-3-5-|
E|-3-----------------|

Prechorus
G|-------------------------------|---5-3-------------------|
D|-----3-5-3-7-5-----5-7-5-7-9-7-|-------5-3---------------|
A|-3-3-----------5-5-------------|-3---------3-55-33-22-00-|
E|-------------------------------|-------------------------|

Chorus
G|--------------------------|
D|---------------2---55-2-0-|
A|---2-5---3-5-3---3--------|
E|-3-----5------------------|

-intro
-verse
-prechorus
-chorus

Bridge
G|-------------------------------5-3------------------------------------------------|
D|---------5555555-3-----3333333-----5-3---------------------------------555555-3---|
A|-3333333-----------5-3-----------------3---------------2---2-5-3333333----------3-|
E|-----------------------------------------55555555-3333---3------------------------|

G|----------------------|
D|--------------2---2-5-|
A|----------333---3-----|2x
E|-555-2-33-------------|

-prechorus
-chorus

Ending
G|----------|
D|-------5~-|
A|-----3----|
E|-3-5------|
            
Submit corrections

comments powered by Disqus
↑ Back to top | Rancid Bass for Backslide. Lyrics for acoustic guitar and electric guitar. Tablatures and chords are parodies/interpretations of the original songs. You may use it for private study, scholarship, research or language learning purposes only