» » »

Rancid, As One Tabs (ver.1)

Artists:  A B C D E F G H I J K L M N O P Q R S T U V W X Y Z # 

As One Tabs (ver.1)

Rancid Tabs
 Rating:
4/5 (4 votes)
As One lessons Tabs too difficult? Try these video lessons and learn fast
                Band/Artist - Rancid
Song/Track - As One
Tuning - Standered (EADGBe)

intro
e--------------------------
B--------------------------
G--14--------7----9----16--x4
D--14--------7----9----16--
A--12--------5----7----14--
E--------------------------

verse
e--------------------------
B--------------------------
G-----------7----9---------x4
D--7--------7----9---------
A--7--------5----7---------
E--5-----------------------

chorus
e-------------
B-------------
G--9-----7----x4
D--9--7--7----
A--7--7--5----
E-----5-------

play verse x4

play chorus x4

play intro x4

play verse x4

play chorus x4

end on
e-----
B-----
G-----
D--7--
A--7--
E--5--
            
Submit corrections

comments powered by Disqus
↑ Back to top | Rancid Tabs for As One. Lyrics for acoustic guitar and electric guitar. Tablatures and chords are parodies/interpretations of the original songs. You may use it for private study, scholarship, research or language learning purposes only