» » »

Rancid, 7 Years Down Tabs (ver.2)

Artists:  A B C D E F G H I J K L M N O P Q R S T U V W X Y Z # 

7 Years Down Tabs (ver.2)

Rancid Tabs
Rating:
0/5 (0 votes)
7 Years Down lessons Tabs too difficult? Try these video lessons and learn fast
                Band/Artist - Rancid
Song/Track - 7 Years Down
Tuning - Standered (EADGBe)

intro
e-------------------------------------------------
B-------------------------------------------------
G-------------------------------------------------x4
D--5-slide to-8--7--5---5--3--2--3--2--2----------
A-----------------------------------------3-------
E-------------------------------------------------

verse
e-------------------------------------------------
B-------------------------------------------------
G-------------------------------------------------x4
D--2----------------3--------5--------------------
A--2----------------3--------5--------------------
E--0----------------1--------3--------------------

chorus
e-------------------------------------------------
B-------------------------------------------------
G--5----------------------------------------------x4
D--5----------------5--------3--------------------
A--3----------------5--------3--------------------
E-------------------3--------1--------------------

play verse x4

play chorus x4

bass bit

end of bass bit
e-------------------------------------------------
B-------------------------------------------------
G-------------------------------------------------x4
D--3----------------5-----------------------------
A--3----------------5-----------------------------
E--1----------------3-----------------------------

play intro x2

bass plays

play chorus x4

end on
e-----
B-----
G--5--BEND AND SLOWLY
D--5--VIBRATO IT.
A--3--
E-----
            
Submit corrections

comments powered by Disqus
↑ Back to top | Rancid Tabs for 7 Years Down. Lyrics for acoustic guitar and electric guitar. Tablatures and chords are parodies/interpretations of the original songs. You may use it for private study, scholarship, research or language learning purposes only