>
 >
1998 2

1998 2 Bass Tabs

Rancid - 1998 2 chords, tabs, tablatures, lyrics

Guitar lessons | Add/correct | Request | Top 50 tabs Artists:  A B C D E F G H I J K L M N O P Q R S T U V W X Y Z 0-9

1998 2 Bass Tabs – Rancid

CD, Sheet music, Poster

Do you like 1998 2? Share with your friends now
Bass TabsBass Tabs v2Bass Tabs v3ChordsTabsUkulele
Intro
G|--------------------------------------|
D|----------------------------------5-5-| 
A|8b-8b-6--66-2-3--------0-0-3-0-3------| 
E|-------8--------3-2-0-----------------|

Verse 1
G|--------------------------------------------------------| 
D|--------------------------------------------------------| 
A|-5-5-3-3-1-1-5-5-3-3-1-1--------------------------------| 
E|--------------------------0-3-0-2-3-0 2-3-1-1-1-1-0-3---| 

Chorus 
G|---------------------------------------------------------------|  
D|------3--------------------------------------------------------|  
A|5-5-5---5-5-5-3-3-3-3-3-------------------------0-0-0-0-0-0-0--|  
E|--------------------------0-2-0-3-3-3-3-0-2-3------------------|

Verse 2
G|-------------------------------------------------------------------|
D|-------------------------------------------------------------------| 
A|-5-5-3-3-1-1--------5-5-3-3-1-1------------------------------------| 
E|-------------1-0-3----------------1-0-3--3-0-2-3-0-2-3-1-1-1-1-0-3-| 

Bridge 
G|--------------------------------------3-5-3-------------------|  
D|--3-------------------------------3----------5-3-5-3----------| 
A|5---5-3-0-1-0---1---0-2-3-5---5-3---------------------5-3-----| 
E|--------------1---1-------------------------------------------|  

G|--------------------------------------------------------------|  
D|--3-----------------------------------------------------------|  
A|5---5-3-0-1-0---1-------------------------------0-0-0-0-0-0-0-|  
E|-------------------1---1-0-1-0-1-1-1-1-0-1-3------------------|  

G|-------------------------------------------------------|  
D|--3--------------3-5-5-5---3---------------------------|  
A|5---5-3-0-1-1------------5---5-3-0-1-0---1---0-2-3-5---|  
E|------------------------------------------------1---1--|  

G|--------------------------------|  
D|3-------------------------------|  
A|--5-3-0-1-0---1-----------------| 
E|---------------1---1-0-1-0------|

G|--------------------------------------|
D|----------------------------------5-5-| 
A|8b-8b-6--66-2-3--------0-0-3-0-3------| 
E|-------8--------3-2-0-----------------|





Comments


Popular Rancid tabs & chords
Burn 1 Bass Tabs
Meteor Of War 1 Bass Tabs
Old Friend 4 Bass Tabs
You Want It You Got It Bass Tabs
Black Lung 1 Tabs
Dead Bodies Tabs
I Am Forever 1 Tabs
Junkyard Tabs
Last One To Die Tabs
Old Friend Tabs


Song lyrics



↑ Back to top | Tablatures and chords are parodies/interpretations of the original songs. You may use it for private study, scholarship, research or language learning purposes only
© 2014 AZChords.com Contact us | Privacy policy | DMCA | Add/correct tabs | Request tabs | Top 50 tabs