» » »

Ramones, I Wanna Be Sedated Tabs (ver.2)

Artists:  A B C D E F G H I J K L M N O P Q R S T U V W X Y Z # 

I Wanna Be Sedated Tabs (ver.2)

Ramones Tabs
Rating:
0/5 (0 votes)
I Wanna Be Sedated lessons Tabs too difficult? Try these video lessons and learn fast
                VERSION:RAMONESMANIA
TRANSCRIT: JUAN MANUEL FUENTES GONZALEZ(theReks Volta)

INTRO   play it 2 times
E---------------------------------
B---------------------------------
G----7 / 9-9-9-9-9-9-9-9------  
D----7 / 9-9-9-9-9-9-9-9------
A----5 / 7-7-7-7-7-7-7-7------
E----------------------------------

VERSE A ( hit the chords about a 10 times each)
this part play it 2 times
E----------------------------------
B-----------------------------------
G---9-9-9----------------9-9-9--
D---9-9-9----7-7-7-----9-9-9--
A---7-7-7----7-7-7-----7-7-7--
E--------------5-5-5-------------

VERSE B ..get me to the airport..
this part play it 3 times
E------------------------------
B------------------------------
G-----------------9--9-9-9-9-9-
D--9--9-9-9-9-9---9--9-9-9-9-9-
A--9--9-9-9-9-9---7--7-7-7-7-7-
E--7--7-7-7-7-7----------------

CONT. VERSE B ..ohh.ohh.oh.oh.oh
play it only 1 time

E---------------------------------
B---------------------------------
G---------------------------------
D---7--7-7-7-7-7----9--9-9-9-9-9--
A---7--7-7-7-7-7----9--9-9-9-9-9--
E---5--5-5-5-5-5----7--7-7-7-7-7--

REPEAT INTRO

REPEAT  VERSE A

REPEAT VERSE B

REPEAT CONT.VERSE B

LITTLE BRIDGE
play it 2 times

E-----------------------------------------------------------
B-----------------------------------------------------------
G--9--9-9-9-9-9--------------------------------9--9-9-9-9-9-
D--9--9-9-9-9-9--7--7-7-7-7-7---9--9-9-9-9-9---9--9-9-9-9-9-
A--7--7-7-7-7-7--7--7-7-7-7-7---9--9-9-9-9-9---7--7-7-7-7-7-
E----------------5--5-5-5-5-5---7--7-7-7-7-7----------------

BEFORE THE VERSE C
play it 2 times

E---------------------------------------
B---------------------------------------
G--9 / 11-11-11-11-11-11-11-11-11-11-11-
D--9 / 11-11-11-11-11-11-11-11-11-11-11-
A--7 / 9 --9--9--9--9--9--9--9--9--9--9-
E---------------------------------------

VERSE C  (hit the chords about  10 times each)
play it this part 2 times

E--------------------------------------
B--------------------------------------
G--11-11-11---------------11-11-11-----
D--11-11-11---9--9--9-----11-11-11-----
A--9---9--9---9--9--9-----9--9---9-----
E-------------7--7--7------------------

VERSE D... put me in a wheelchair..
play it 3 times

E---------------------------------------------
B---------------------------------------------
G-------------------------11--11-11-11-11-11--
D---11--11-11-11-11-11----11--11-11-11-11-11--
A---11--11-11-11-11-11-----9---9--9--9--9--9--
E---9----9--9--9--9--9------------------------

CONT.VERSE D  ohh.ohh.oh.oh.oh
play it only  one time

E---------------------------------------
B---------------------------------------
G---------------------------------------
D--9--9-9-9-9-9------11--11-11-11-11-11-
A--9--9-9-9-9-9------11--11-11-11-11-11-
E--7--7-7-7-7-7-------9---9--9--9--9--9-

REPEAT BEFORE VERSE C

REPEAT VERSE C

REPEAT VERSE D

REPEAT CONT.VERSE D


FINAL PART  bam.bam.bambam i wanna be sedated!!
play it 3 times and finish  hitin' the final chord one time

E------------------------------------------------------------------------------
B------------------------------------------------------------------------------
G--11--11-11-11-11-11---------------------------------------11--11-11-11-11-11-
D--11--11-11-11-11-11---9--9-9-9-9-9---11--11-11-11-11-11---11--11-11-11-11-11-
A---9---9---9--9--9-----9--9-9-9-9-9---11--11-11-11-11-11---9----9--9--9--9--9-
E-----------------------7--7-7-7-7-7---9---9--9---9--9--9-----------------------

THAT'S IT FOLKS!!!  ENJOY THIS GREAT SONG
AND PLEASE RATE MY TAB!!!!
VIVA EL CCH VALLEJO
AT THE DRIVE-IN FOREVER TOO!!!!!
            

comments powered by Disqus
↑ Back to top | Ramones Tabs for I Wanna Be Sedated. Lyrics for acoustic guitar and electric guitar. Tablatures and chords are parodies/interpretations of the original songs. You may use it for private study, scholarship, research or language learning purposes only