>
 >
I Wanna Be Sedated 1

I Wanna Be Sedated 1 Guitar Tabs

Ramones - I Wanna Be Sedated 1 chords, tabs, tablatures, lyrics

Guitar lessons | Add/correct | Request | Top 50 tabs Artists:  A B C D E F G H I J K L M N O P Q R S T U V W X Y Z 0-9

I Wanna Be Sedated 1 Guitar Tabs – Ramones

CD, Sheet music, Poster

Do you like I Wanna Be Sedated 1? Share with your friends now
Bass TabsBass Tabs v2Bass Tabs v3ChordsChords v2Drum TabsDrum Tabs v2TabsTabs v2Tabs v3Tabs v4Tabs v5Ukulele
I WANNA BE SEDATED

As recorded by The Ramones
(From the 1978 Album ROAD TO RUIN)



Gtr I, II, III (E A D G B E) - 'Rhythm w/dist'
Gtr IV (E A D G B E) - 'Lead w/dist'

Intro
  Q=164
 4/4
  Gtr I
  D#5 E   E5                E         D#E         E(type 2) E   E5
  q   e E e E e E   e E e E e E e E   E E e E e E e E   e E e E e E e E
  |   | | | | | |   | | | | | | | |   | | | | | | | |   | | | | | | | |
  /   / x / x / x   / x / x / x / x   / / / x / x / x   / x / x / x / x

  Gtrs II, III
        PM  PM  PM    PM  PM  PM  PM        PM  PM  PM    PM  PM  PM  PM
  E E E E E E E E   E E E E E E E E   E E E E E E E E   E E E E E E E E
|-----------------|-----------------|-----------------|------------------||
|-----------------|-----------------|-----------------|------------------||
|-----------------|-----------------|-----------------|------------------||
|-8s9-9---9---9---|-9---9---9---9---|-8s9-9---9---9---|-9---9---9---9----||
|-6s7-7---7---7---|-7---7---7---7---|-6s7-7---7---7---|-7---7---7---7----||
|-------0---0---0-|---0---0---0---0-|-------0---0---0-|---0---0---0---0--||


   Verse 1 & 2
    E5                E             A5  A
    E E E E E E E E   E E E E E E E E   Q  E E Q   E E
    | | | | | | | |   | | | | | | | |   |  | | |   | |
    / x / x / x / x   / x / x / / / /   /  / / /   / x

      PM  PM  PM  PM    PM  PM
    E E E E E E E E   E E E E E E E E   Q  E E E E E E
||------------------|-----------------|----------------|
||o-----------------|-----------------|----------------|
||------------------|-----------------|-6--6-6-6-6-6---|
||--9---9---9---9---|-9---9---9-9-9---|-7--7-7-7-7-7---|
||o-7---7---7---7---|-7---7---7-7-7-7-|-7--7-7-7-7-7-x-|
||----0---0---0---0-|---0---0---0-0-5-|-5--5-5-5-5-5-x-|


  E5                E                 E5            A5
  E E E E E E E E   E E E E E E E E   E e E e E E E E
  | | | | | | | |   | | | | | | | |   | | | | | | | |
  / x / x / x / x   / x / x / x / x   / / / / / / / /

    PM  PM  PM  PM    PM  PM  PM  PM    PM  PM  PM
  E E E E E E E E   E E E E E E E E   E E E E E E E E
|-----------------|-----------------|-----------------|
|-----------------|-----------------|-----------------|
|-----------------|-----------------|-----------------|
|-9---9---9---9---|-9---9---9---9---|-9---9---9---9---|
|-7---7---7---7---|-7---7---7---7---|-7---7---7---7-7-|
|---0---0---0---0-|---0---0---0---0-|---0---0---0---5-|


  A             E   E  E5        B5  B
  H      Q.     E   Q  E E E E E E   Q.    E Q   E E
  |      |      |   |  | | | | | |   |     | |   | |
  /      /      o   /  / / / / / /   /     / /   / /

  Q  E E E  E E E   Q  E E E E E E   Q   E E E E E E
|-----------------|----------------|-----------------|
|-----------------|----------------|-----------------|
|-6--6-6-6--6-6-6-|-9--9-9-9-9-9---|-8---8-8-8-8-8-8-|
|-7--7-7-7--7-7-7-|-9--9-9-9-9-9---|-9---9-9-9-9-9-9-|
|-7--7-7-7--7-7-7-|-7--7-7-7-7-7-9-|-9---9-9-9-9-9-9-|
|-5--5-5-5--5-5-5-|--------------7-|-7---7-7-7-7-7-7-|


  E                 B                E  E5
  E E E E Q   E E   Q  E E E E E E   Q  E E E E E E
  | | | | |   | |   |  | | | | | |   |  | | | | | |
  / / / / /   / /   /  / / / / / /   /  / / / / / /

  Q   E E E E E E   Q  E E E E E E   Q  E E E E E E
|-----------------|----------------|----------------|
|-----------------|----------------|----------------|
|-9---9-9-9-9-9-9-|-8--8-8-8-8-8-8-|-9--9-9-9-9-9-9-|
|-9---9-9-9-9-9-9-|-9--9-9-9-9-9-9-|-9--9-9-9-9-9-9-|
|-7---7-7-7-7-7-7-|-9--9-9-9-9-9-9-|-7--7-7-7-7-7-7-|
|-0---------------|-7--7-7-7-7-7-7-|-0--------------|


                                                    1.
  B                E                A            B                E
  Q  E E E E E E   Q  E E E E E E   Q  E E E E E E   Q  E E E E E E
  |  | | | | | |   |  | | | | | |   |  | | | | | |   |  | | | | | |
  /  / / / / / /   /  / / / / / x   /  / / / / / /   /  / / / / / o

                                                                  PM
  Q  E E E E E E   Q  E E E E E E   Q  E E E E E E   Q  E E E E E E
|----------------|----------------|----------------|-----------------|
|----------------|----------------|----------------|-----------------|
|-8--8-8-8-8-8-8-|-9--9-9-9-9-9-9-|-6--6-6-6-6-6s8-|-8--8-8-8-8-8----|
|-9--9-9-9-9-9-9-|-9--9-9-9-9-9-9-|-7--7-7-7-7-7s9-|-9--9-9-9-9-9----|
|-9--9-9-9-9-9-9-|-7--7-7-7-7-7-7-|-7--7-7-7-7-7s9-|-9--9-9-9-9-9----|
|-7--7-7-7-7-7-7-|-0--------------|-5--5-5-5-5-5s7-|-7--7-7-7-7-7-0--|


                                        2.
  E5          E                          B
  e E e E e e e E   e E e E e E e E      Q   Q   E E E E
  | | | | | | | |   | | | | | | | |      |   |   | | | |
  / x / x / / / x   / x / x / x / x      /   /   / / / /

                                                       PM
  E E E E E E E E   E E E E E E E E      E E E E E E E E
|-----------------|------------------||------------------||
|-----------------|-----------------o||------------------||
|-----------------|------------------||------------------||
|-9---9---9---9---|-9---9---9---9----||--9-x-9-9-9-9-9---||
|-7---7---7---7---|-7---7---7---7---o||--9-x-9-9-9-9-9---||
|-0-0-0-0-0-0-0-0-|-0-0-0-0-0-0-0-0--||--7-x-7-7-7-7-7-7-||


 Guitar Solo
  Gtrs I, II, III
  E(type 2)     A5  A             B   B             E   E   E5    B E C#
  e E e E e E e E   e e e E e E e E   e E e E e E e E   e E e E e E e E
  | | | | | | | |   | | | | | | | |   | | | | | | | |   | | | | | | | |
  / x / x / x / /   / / / x / x / o   / x / x / x / o   / x / x / o / o

  Gtr IV
  Q   Q   E E E E   Q   Q   E E E E   Q   Q   E E E E   Q   Q   E E E E
|-0---0---0-0-0-0-|-0---0---0-0-0-0-|-0---0---0-0-0-0-|-0---0---0-0-0-0--|
|-5---5---5-5-5-5-|-5---5---5-5-5-5-|-5---5---5-5-5-5-|-5---5---5-5-5-5--|
|-----------------|-----------------|-----------------|------------------|
|-----------------|-----------------|-----------------|------------------|
|-----------------|-----------------|-----------------|------------------|
|-----------------|-----------------|-----------------|------------------|


  E(type 2)     A5  A             B   B             E   E             D#
  e E e E e E e E   e e e E e E e E   e E e E e E e E   E E E E E E E E
  | | | | | | | |   | | | | | | | |   | | | | | | | |   | | | | | | | |
  / x / x / x / /   / / / x / x / o   / x / x / x / o   / x / x / x / /

  Q   Q   E E E E   Q   Q   E E E E   E E Q   E E E E   Q   Q   E E E E
|-0---0---0-0-0-0-|-0---0---0-0-0-0-|-0-0-0---0-0-0-0-|-0---0---0-0-0-0--||
|-5---5---5-5-5-5-|-5---5---5-5-5-5-|-5-5-5---5-5-5-5-|-5---5---5-5-5-5--||
|-----------------|-----------------|-----------------|------------------||
|-----------------|-----------------|-----------------|------------------||
|-----------------|-----------------|-----------------|------------------||
|-----------------|-----------------|-----------------|------------------||


                                        Verse 3 & 4
  Gtrs I, II, III
  E E E E E  E E E   E E E E E E E E      E E  E E  E E  E E
|------------------|-----------------||----------------------|
|-8s9-9-9-9--------|-9---9-9-9-9-9-9-||o-11------------------|
|-8s9-9-9-9-/9-9-9-|-9-9-9-9-9-9-9-9-||--11-x-11-x-11-x-11-x-|
|-8s9-9-9-9-/9-9-9-|-9-9-9-9-9-9-9-9-||--11-x-11-x-11-x-11-x-|
|-6s7-7-7-7-/7-7-7-|-7-7-7-7-7-7-7-7-||o--9-x--9-x--9-x--9-x-|
|-----0-0-0--------|-0---0---0-0-0-0-||----------------------|
                                      |-Rhy Fig 1

   E E  E E  E  E  E E    Q  E E E E E E    E  E  E E  E E  E E
|-----------------------|----------------|----------------------|
|-11-----------11-11----|-7--7-7-7-7-7---|------------11--------|
|-11-x-11-x-11-11-11-x\-|-8--8-8-8-8-8---|-11-11-11-x-11-x-11-x-|
|-11-x-11-x-11-11-11-x\-|-9--9-9-9-9-9---|-11-11-11-x-11-x-11-x-|
|--9-x--9-x--9--9--9-x\-|-9--9-9-9-9-9---|--9--9--9-x--9-x--9-x-|
|-----------------------|-7--7-7-7-7-7-0-|----------------------|
                           end Rhy Fig 1-|

Rhy Fig 1
                          C#
                        Gtr I
   W                       Q   E  E  E  E  E  E
                           |   |  |  |  |  |  |
                           /   /  /  /  /  /  /

                        Gtrs II, III
   Q   E  E  E  E  E  E    Q   E  E  E  E  E  E
|-----------------------|-----------------------|
|-11--11----11-11-11----|-----------------------|
|-11--11----11-11-11----|-10--10-10-10-10-10-10-|
|-11--11-11-11-11-11-11-|-11--11-11-11-11-11-11-|
|--9---9--9--9--9--9--9-|-11--11-11-11-11-11-11-|
|-----------------------|--9---9--9--9--9--9--9-|


  F#                       C#
   q.      E  E  E  E  E    Q   E  E  E  E  E  E
   |       |  |  |  |  |    |   |  |  |  |  |  |
   /       /  /  /  /  /    /   /  /  /  /  /  /

   Q    E  E  E  E  E  E    Q   E  E  E  E  E  E
|------------------------|-----------------------|
|------------------------|-----------------------|
|-11---11-11-11-11-11-11-|-10--10-10-10-10-10-10-|
|-11---11-11-11-11-11-11-|-11--11-11-11-11-11-11-|
|--9----9--9--9--9--9--9-|-11--11-11-11-11-11-11-|
|------------------------|--9---9--9--9--9--9--9-|


  F#                       C#
   q.      E  E  E  E  E    Q   E  E  E  E  E  E
   |       |  |  |  |  |    |   |  |  |  |  |  |
   /       /  /  /  /  /    /   /  /  /  /  /  /

   Q    E  E  E  E  E  E    Q   E  E  E  E  E  E
|------------------------|-----------------------|
|------------------------|-----------------------|
|-11---11-11-11-11-11-11-|-10--10-10-10-10-10-10-|
|-11---11-11-11-11-11-11-|-11--11-11-11-11-11-11-|
|--9----9--9--9--9--9--9-|-11--11-11-11-11-11-11-|
|------------------------|--9---9--9--9--9--9--9-|


  F#                       B              E
   q.      E  E  E  E  E   Q   E E Q.      E
   |       |  |  |  |  |   |   | | |       |
   /       /  /  /  /  /   /   / / /       o

   Q    E  E  E  E  E  E   E E E E E  E E  E
|------------------------|-------------------|
|------------------------|-------------------|
|-11---11-11-11-11-11-11-|-8-8-8-8-8--8-8----|
|-11---11-11-11-11-11-11-|-9-9-9-9-9--9-9----|
|--9----9--9--9--9--9--9-|-9-9-9-9-9--9-9S11-|
|------------------------|-7---7---7--7-7S=9-|


  1.
  Gtrs II, III
                                 PM|         PM|
   Q   E  E  E  E  E  E    E  E  E  E  E  E  E  E
|-----------------------|-------------------------|
|-----------------------|-------------------------|
|-10--10-10-10-10-10-10-|-11--x-------11--x-------|
|-11--11-11-11-11-11-11-|-11--x-11-11-11--x-11-11-|
|-11--11-11-11-11-11-11-|--9--x--9--9--9--x--9--9-|
|--9---9--9--9--9--9--9-|-------------------------|
|
| Gtr I
|  Q   E  E  E  E  E  E    E  E  E  E  E  E  E  E
|--9---9--9--9--9--9--9-|-------------------------|
|--9---9--9--9--9--9--9-|-------------------------|
|-10--10-10-10-10-10-10-|-------------------------|
|-11--11-11-11-11-11-11-|-----x--x--x-----x--x--x-|
|-11--11-11-11-11-11-11-|-[9]-x--x--x-[9]-x--x--x-|
|--9---9--9--9--9--9--9-|-------------------------|


                                  2.
   E  E   E   e  E  e  E   e       Q   E  E  E  E  E  E
|------------------------------||-----------------------||
|-----------------------------o||-----------------------||
|-11--x------------------------||-10--10-10-10-10-10-10-||
|-11--x--11--11-11-11-11--11---||-11--11-11-11-11-11-11-||
|--9--x---9---9--9--9--9---9--o||-11--11-11-11-11-11-11-||
|------------------------------||--9---9--9--9--9--9--9-||
|
|  E  E   E   E  E  E  E   E       Q   E  E  E  E  E  E
|------------------------------||-----------------------||
|-----------------------------o||-----------------------||
|------------------------------||-10--10-10-10-10-10-10-||
|-----x-[11]--x--x--x--x-[11]--||-11--11-11-11-11-11-11-||
|-[9]-x-------x--x--x--x------o||-11--11-11-11-11-11-11-||
|------------------------------||--9---9--9--9--9--9--9-||


   Outro
     E E  E E  E E  E E   E E E E E E E E
||----------------------|-----------------|
||o-11---11---11---11---|-----------------|
||--11-x-11-x-11-x-11-x-|-8-x-8-x-8-x-8-x-|
||--11-x-11-x-11-x-11-x-|-9-x-9-x-9-x-9-x-|
||o--9-x--9-x--9-x--9-x-|-9-x-9-x-9-x-9-x-|
||----------------------|-7---7---7---7---|
 |-Rhy Fig 2

   E E  E E  E E  E E    E E  E E  E E  E E
|---------------------|-----------------------||
|---------------------|-11---11---11---11----o||
|-10-x-10-x-10-x-10-x-|-11-x-11-x-11-x-11-x---||
|-11-x-11-x-11-x-11-x-|-11-x-11-x-11-x-11-x---||
|-11-x-11-x-11-x-11-x-|--9-x--9-x--9-x--9-x--o||
|--9----9----9----9---|-----------------------||
                                end Rhy Fig 2-|

   Gtrs II, III play Rhy Fig 2
    Gtr I
    F#                  A    B                   C#
     Q     Q     E E  E  E    Q    Q     E  E  E  E
     |     |     | |  |  |    |    |     |  |  |  |
     /     /     / /  /  o    /    /     /  /  /  o 
    Gtr IV
     E  E  E  E  Q    E  E    Q    E  E  E  E  E  E
||-------------------------|------------------------|
||o--7--7--7--7--7----7--7-|--7----7--7--7--7--7--7-|
||--11-11-11-11-11---11-11-|-11---11-11-11-11-11-11-|
||-------------------------|------------------------|
||o------------------------|------------------------|
||-------------------------|------------------------|


                          1.                           2.
  C#                       F#                          F#II
   Q    Q     E  E  E  E    Q     Q     E  E  E  E      W
   |    |     |  |  |  |    |     |     |  |  |  |      |
   /    /     /  /  /  /    /     /     /  /  /  /      /
                                                    Gtrs II,II
   Q    E  E  E  E  E  E    E  E  E  E  E  E  E  E      W
|------------------------|--------------------------||-------*|
|--7----7--7--7--7--7--7-|--7--7--7--7--7--7--7--7-o||-11----*|
|-11---11-11-11-11-11-11-|-11-11-11-11-11-11-11-11--||-11----*|
|------------------------|--------------------------||-11----*|
|------------------------|-------------------------o||--9----*|
|------------------------|--------------------------||--9----*|



Twenty-twenty-twenty four hours to go 
I wanna be sedated 
Nothing to do 
Nowhere to go 
I wanna be sedated 
Just get me to the airport 
And put me on a plane 
Hurry hurry hurry before I go insane 
I can't control my fingers 
I can't control my brain 
Oh no oh ho 
Just put me in a wheelchair 
And get me to the show 
Hurry hurry hurry before I go loco 
I can't control my fingers 
I can't control my toes 
Oh no oh ho.





Comments


Popular Ramones tabs & chords
Danny Says Bass Tabs
I Wanna Be Sedated 2 Bass Tabs
I Wanna Be Sedated 3 Bass Tabs
Any Way You Want It Chords
Go Mental 1 Chords
I Just Wanna Have Something To Do Chords
Outsider 1 Tabs
Zero Zero Ufo Tabs
Pet Cemetary Ukulele
Pet Sematary Ukulele


Song lyrics



↑ Back to top | Tablatures and chords are parodies/interpretations of the original songs. You may use it for private study, scholarship, research or language learning purposes only
© 2014 AZChords.com Contact us | Privacy policy | DMCA | Add/correct tabs | Request tabs | Top 50 tabs