» » »

Ramones, California Sun Bass tabs (ver.1)

Artists:  A B C D E F G H I J K L M N O P Q R S T U V W X Y Z # 

California Sun Bass tabs (ver.1)

Ramones Tabs
Rating:
0/5 (0 votes)
California Sun lessons Tabs too difficult? Try these video lessons and learn fast
                Tuning: Standard

G|-----------------|-----------------|-----------------|-----------------|
D|-----------------|-----------------|-----------------|-----------------|
A|-7-7-7-7---------|-7-7-7-7---------|-7-7-7-7---------|-7-7-7-7---------|
E|---------5-5-5-5-|---------5-5-5-5-|---------5-5-5-5-|---------5-5-5-5-|

G|-----------------|-----------------|
D|-----------------|-----------------|
A|-7-7-7-7---------|---------7-7-7---|
E|---------9-9-9-9-|-5-5-7-7---------|

*Break (Guitar only for the first part of the verse)*

Well I'm going out west where I belong 
Where the days are short and the nights are long 

*Then*

G|-----------------|-----------------|-----------------|-----------------|
D|-----------------|-----------------|-----------------|-----------------|
A|-7-7-7-7---------|-7-7-7-7---------|-7-7-7-7---------|-7-7-7-7---------|
E|---------5-5-5-5-|---------5-5-5-5-|---------5-5-5-5-|---------5-5-5-5-|

G|-----------------|-----------------|
D|-----------------|-----------------|
A|-7-7-7-7---------|---------7-7-7---|
E|---------9-9-9-9-|-5-5-7-7---------|

*Break Again*

Well, I'm going out west out on the coast 
Where the California girls are really the most 

*Then*

G|-----------------|-----------------|-----------------|-----------------|
D|-----------------|-----------------|-----------------|-----------------|
A|-7-7-7-7---------|-7-7-7-7---------|-7-7-7-7---------|-7-7-7-7---------|
E|---------5-5-5-5-|---------5-5-5-5-|---------5-5-5-5-|---------5-5-5-5-|

G|-----------------|-----------------|
D|-----------------|-----------------|
A|-7-7-7-7---------|---------7-7-7---|
E|---------9-9-9-9-|-5-5-7-7---------|

G|-----------------|-----------------|-----------------|-----------------|
D|-----------------|-----------------|-----------------|-----------------|
A|-7-7-7-7---------|-7-7-7-7---------|-7-7-7-7---------|-7-7-7-7---------|
E|---------5-5-5-5-|---------5-5-5-5-|---------5-5-5-5-|---------5-5-5-5-|

G|-----------------|-----------------|-----------------|-----------------|
D|-----------------|-----------------|-----------------|-----------------|
A|-7-7-7-7---------|-7-7-7-7---------|-7-7-7-7---------|---------7-7-7---|
E|---------5-5-5-5-|---------5-5-5-5-|---------9-9-9-9-|-5-5-7-7---------|

*Break*

Well, the girls are frisky in old 'Frisco 
A pretty little chick wherever you go 

*Go*

G|-----------------|-----------------|-----------------|-----------------|
D|-----------------|-----------------|-----------------|-----------------|
A|-7-7-7-7---------|-7-7-7-7---------|-7-7-7-7---------|-7-7-7-7---------|
E|---------5-5-5-5-|---------5-5-5-5-|---------5-5-5-5-|---------5-5-5-5-|

G|-----------------|-----------------|-----------------|-----------------|
D|-----------------|-----------------|-----------------|-----------------|
A|-7-7-7-7---------|---------7-7-7-7-|-7-7-7-7---------|---------7-7-7---|
E|---------9-9-9-9-|-5-5-7-7---------|---------9-9-9-9-|-5-5-7-7---------|

Easy song, fun to play.

Peace.
            
Submit corrections

comments powered by Disqus
↑ Back to top | Ramones Bass for California Sun. Lyrics for acoustic guitar and electric guitar. Tablatures and chords are parodies/interpretations of the original songs. You may use it for private study, scholarship, research or language learning purposes only