» » »

California Sun Tabs (ver.2)

Artists:  A B C D E F G H I J K L M N O P Q R S T U V W X Y Z # 

California Sun Tabs (ver.2)

Ramones
Rating:
0/5 (0 votes)

Hard to play? Try these video lessons and learn fast.
                I HAVE SEEN ALOT OF TABS FOR THIS SONG AND THEY ARE ALL WRONG. THIS 100% CORRECT I HAVE STUDIED THIS SONG.
                                   R A M O N E S
                                 R O C K @ R O L L


E-------------------------------------
B-------------0-0-0-0-0-0------X5-------------
G-0-0-0-0-0-0-2-2-2-2-2-2-------------------------
D-2-2-2-2-2-2-2-2-2-2-2-2-------------------------
A-2-2-2-2-2-2-------------------------------
E-------------------------------------



E--------------------------------------------------------------------------------
B--------------------------------------------------------------------------------
G--------------------6--6--6--6--6--6--------------9--9--------------------------
D--2--2--2--2--2--2--6--6--6--6--6--6--7--7--9--9--9--9--------------------------
A--2--2--2--2--2--2--4--4--4--4--4--4--7--7--9--9--7--7--------------------------
E--0--0--0--0--0--0--------------------5--5--7--7--------------------------------






E---------------------------0--------------------------------0---------------------
B------------0--0--2--2--------0-------------0--0--2--2--2---0---------------------
G---------1------------------------------1-----------------------------------------
D--2--2--------------------------2--2----------------------------------------------
A---------------------------------------------------------------------------------- E----------------------------------------------------------------------------------
            
Hard to play? Try these video lessons and learn fast. | Correct




comments powered by Disqus
↑ Back to top | Tablatures and chords are parodies/interpretations of the original songs. You may use it for private study, scholarship, research or language learning purposes only