>
 >
Since Youve Been Gone (Solo)

Since Youve Been Gone (Solo) Guitar Tabs

Rainbow - Since Youve Been Gone (Solo) chords, tabs, tablatures, lyrics

Guitar lessons | Add/correct | Request | Top 50 tabs Artists:  A B C D E F G H I J K L M N O P Q R S T U V W X Y Z 0-9

Since Youve Been Gone (Solo) Guitar Tabs – Rainbow

CD, Sheet music, Poster

Do you like Since Youve Been Gone (Solo)? Share with your friends now
Tabs
Since You've Been Gone

INTRO:

e|--3-3-3------------------------------------3-3-3---------------------------|
B|--3-3-3------------------------------------3-3-3---------------------------|
G|--0-0-0------7-7------9-9-9-----5-5--------0-0-0------7----9---5-----5--5--|
D|--5-5-5------7-7------9-9-9-----5-5--------5-5-5------7----9---5-----5--5--|
A|--5-5-5------5-5------7-7-7-----3-3--------5-5-5------5----7---3-----3--3--|
E|---------------------------------------------------------------------------|

e|-----------3-3-3--------------------------------3-3-3----------------------|
B|-----------3-3-3--------------------------------3-3-3----------------------|
G|-----7-7---0-0-0-----7-7-----9-9-9-----5-5------0-0-0----7--9----5--5-s-7--|
D|-----7-7---5-5-5-----7-7-----9-9-9-----5-5------5-5-5----7--9----5--5-s-7--|
A|-----5-5---5-5-5-----5-5-----7-7-7-----3-3------5-5-5----5--7----3--3-s-5--|
E|---------------------------------------------------------------------------|

SOLO 1:

e|---------------------------------------------------------------------------|
B|---------------------------------------------------------------------------|
G|--2-s-4----------5-----------7------7b9---7---5h7p5--4----4---5--4h5p4-----|
D|--------------5----------5-----------------------------------------------7-|
A|---------------------------------------------------------------------------|
E|---------------------------------------------------------------------------|

e|-------------------|
B|-----------6b8-----|
G|-------------------|
D|----5--------------|
A|-------------------|
E|-------------------|

OUTRO SOLO:

    
e|---------------------------------------------------------------------------|
B|--PB-8-BD-10----------5---------------------------------5------------------|
G|----------------7b9------7--6----PB-6-BD-4--2----4b6-----------------------|
D|------------------------------------------------------------PB-5-BD-4p2p0--|
A|---------------------------------------------------------------------------|
E|---------------------------------------------------------------------------|

e|---------------------------------------------------------------------------|
B|-2~~~~----------5--5-------------------------------------------------------|
G|----------4b6----------4b6BD4p2-----2-------5p2p0-------2-----4b6BD4b6BD4b6|
D|---------------------------------4-----4------------4----------------------|
A|---------------------------------------------------------------------------|
E|---------------------------------------------------------------------------|

e|---5---3---------0---------------------------------------------------------|
B|-----------5---------------------------------------------------------5h7p5-|
G|--------------3----------2h4p2p0------2---4-s-6---4----------7---6---------|
D|-----------------------------------4--------------------7------------------|
A|---------------------------------------------------------------------------|
E|---------------------------------------------------------------------------|

e|---------------------5--------5-------7-----------------------------10--12-|
B|--5h7p5---------5h7------5h7-----7h9-------PB-8-BD-7--5---------10---------|
G|----------7----------------------------------------------------------------|
D|---------------------------------------------------------------------------|
A|---------------------------------------------------------------------------|
E|---------------------------------------------------------------------------|

e|--10p9-----------------------------------------------------------12--------|
B|---------10----10-----12b14--12b14--12--10-12--12b14BD12--12b14------12b14-|
G|-------------9-------------------------------------------------------------|
D|---------------------------------------------------------------------------|
A|---------------------------------------------------------------------------|
E|---------------------------------------------------------------------------|

e|----------------------------------------------10-----------12-s-10---------|
B|--12---10h12p10------10-------10h12p10-------------------------------------|
G|-----------------11----------------------11-------11-s-13------------------|
D|---------------------------------------------------------------------------|
A|---------------------------------------------------------------------------|
E|---------------------------------------------------------------------------|

e|----------12---------------------------------9---7---9---7-----------------|
B|--12b14-------12b14----12--10--------6---7----------------------10---------|
G|---------------------------------------------------------------------------|
D|---------------------------------------------------------------------------|
A|---------------------------------------------------------------------------|
E|---------------------------------------------------------------------------|


Key:

s= slide
b= bend up
h=hammer on
p=pull
BD=bend down
PB=pre-bend





Comments


Popular Rainbow tabs & chords
A Light In The Black Bass Tabs
Since You Ve Been Gone Bass Tabs
Since Youve Been Gone 2 Bass Tabs
Since Youve Been Gone 4 Bass Tabs
Catch The Rainbow Chords
Ariel Tabs
Do You Close Your Eyes Tabs
Man On The Silver Mountain 1 Tabs
Since You've Been Gone Tabs
Star Gazer Tabs


Song lyrics



↑ Back to top | Tablatures and chords are parodies/interpretations of the original songs. You may use it for private study, scholarship, research or language learning purposes only
© 2014 AZChords.com Contact us | Privacy policy | DMCA | Add/correct tabs | Request tabs | Top 50 tabs