» » »

Rainbow, Since You Ve Been Gone Tabs (ver.2)

Artists:  A B C D E F G H I J K L M N O P Q R S T U V W X Y Z # 

Since You Ve Been Gone Tabs (ver.2)

Rainbow Tabs
 Rating:
4/5 (4 votes)
Since You Ve Been Gone lessons Tabs too difficult? Try these video lessons and learn fast
                Main Riff and intro

e|--------------------------------------------------------------------------------- 
b|--------------------------------------------------------------------------------- 
g|--12--12--12----------9--9--9----------12--12--12------9------------------------- 
d|--12--12--12--12--12--9--9--9--10--10--12--12--12--12--9--10-10-10s12--12-------- 
a|--10--10--10--12--12--7--7--7--10--10--10--10--10--12--7--10-10-10s12--12--------
E|--------------10--10------------8--8---------------10------8--8--8s10--10--------- 

e|-------------------------------------------------------------------------------- 
b|------------------------------------------------------------------------------- 
g|--12--12--12----------9--9--9---------12--12--12------9------------------------
d|--12--12--12--12--12--9--9--9- 10-10--12--12--12--12--9--10-10-10s12----------- 
a|--10--10--10--12--12--7--7--7- 10-10--10--10--10--12--7--10-10-10s12----------- 
E|--------------10--10------------8--8--------------10-----8--8---8s10-----------

Solo

e|-------------------------------------------------------------------3b---------|
b|------------------------------------------------------------------------------|   
g|---2s4------5------7----7b/s9----7----4s5s4----4---5---4----2---0-------------|
d|--------5-------5-------------------------------------------------------------|
a|------------------------------------------------------------------------------|
E|------------------------------------------------------------------------------|


e|-------------------------------------------------------------------3b---2--0--|
b|------------------------------------------------------------------------------|   
g|---2s4------5------7----7b/s9----7----4s5s4----4---5---4----2---0-------------|
d|--------5-------5-------------------------------------------------------------|
a|------------------------------------------------------------------------------|
E|------------------------------------------------------------------------------|

after solo play

e|--------------------------| 
b|--------------------------| 
g|--5--5--5-----5--5--5-----| 
d|--5--5--5-----5--5--5-- --| 
a|--3--3--3-----3--3--3-----| 
E|--------------------------|

Then back to the main Riff again  


Listen to the song for timing.
Christopher H
            
Submit corrections

comments powered by Disqus
↑ Back to top | Rainbow Tabs for Since You Ve Been Gone. Lyrics for acoustic guitar and electric guitar. Tablatures and chords are parodies/interpretations of the original songs. You may use it for private study, scholarship, research or language learning purposes only