>
 >
Self Portrait

Self Portrait Guitar Tabs

Rainbow - Self Portrait chords, tabs, tablatures, lyrics

Guitar lessons | Add/correct | Request | Top 50 tabs Artists:  A B C D E F G H I J K L M N O P Q R S T U V W X Y Z 0-9

Self Portrait Guitar Tabs – Rainbow

CD, Sheet music, Poster

Do you like Self Portrait? Share with your friends now
Tabs
SELF PORTRAIT
                             As recorded by Rainbow
                (From the 1975 Album RITCHIE BLACKMORE'S RAINBOW)

Words by Ronnie James Dio

Music by Ritchie Blackmore & Ronnie James Dio
Arranged by Ritchie Blackmore

          Am                    G                   D5                    F
      x 0 2 2 1 0          3 2 0 0 3 3          x x 0 2 3 x          1 3 3 2 1 1

          F5                    C
      1 3 3 x x x          x 3 2 0 1 0

Gtr I (E A D G B E) - 'Lead Gtr.'
Gtr II (E A D G B E) - 'Rythm Gtr. (Crunch Distortion)'
Gtr III (E A D G B E) - 'Solo Gtr.'

 Intro
  
           N.C.

  Gtr I
                                                ~
|-------||-------------------|------------------------|-------------------|
|-------||-------------------|------------------------|-------------------|
|-------||---------5---------|---------5b7==(5)r5-----|---------5---------|
|-------||---7-5h7---5h7-----|---7-5h7----------------|---7-5h7---5h7-----|
|-------||-0-------------5h7-|-0----------------------|-0-------------5h7-|
|-------||-------------------|------------------------|-------------------|
|
| Gtr II
|-------||-------------------|------------------------|-------------------|
|-------||-------------------|------------------------|-------------------|
|-------||---------5---------|---------5h====7--5-----|---------5---------|
|-------||---7-5h7---5h7-----|---7-5h7------------5-7-|---7-5h7---5h7-----|
|-------||-0-------------5h7-|-0----------------------|-0-------------5h7-|
|-------||-------------------|------------------------|-------------------|


                                                 Verse I
                                                  Am            G     D5
                        9/8                      6/8
  Gtrs I, II
                                             ~
|---------------------||-----------------------||-------------|--------------|
|---------------------||-----------------------||-----------1-|-----------3--|
|---------------------||---------------------5-||-----2---2---|-----0---2----|
|---------------------||-------------------5---||---2---2-----|---0---0------|
|---5h7-5h7---5h7-5h7-||---5h7-5h7-3-4-5S7-----||-0-----------|--------------|
|-0---------0---------||-0---------------------||-------------|-3------------|


  Am              D5                   Am                  G     D5
  Gtr I
                               ~               ~
|---------------|--------------------|-------------------|-------------|
|---------------|--------------------|-------------------|-----------3-|
|-------5-------|--------------5-----|---------5---------|-----0---2---|
|---7-5-----5h7-|---7-5b7==(5)-------|---7-5h7---5h7-----|---0---0-----|
|-0-------0-----|-0------------------|-0-------------5h7-|-------------|
|---------------|--------------------|-------------------|-3-----------|
|
| Gtr II
|---------------|--------------------|-------------------|-------------|
|-----------1---|-----3--------3-1---|---------1---------|-----------3-|
|-----2---2-----|---2----------2-0-0-|-----2-----2-------|-----0---2---|
|---2---2-------|-0----------------0-|---2-----------2---|---0---0-----|
|-0-------------|--------------------|-0-----------------|-------------|
|---------------|--------------------|-------------------|-3-----------|


  Am                  D5
          ~
|-------------------|-----------------||
|-------------------|-----------------||
|---------5---------|---------7-5-----||
|---7-5h7---5h7-----|---7-5h7-----5S7-||
|-0-------------5h7-|-0---------------||
|-------------------|-----------------||
|
|-------------------|-----------------||
|---------------1---|-----3---3-1-----||
|-----2-----2-------|---2-----2-0-0---||
|---2-----2---------|-0-----------0---||
|-0-----------------|-----------------||
|-------------------|-----------------||


 Pre-Chorus I
  F5    G       Am            C     D5
|-------------|-------------|-------------|
|-------------|-------------|-------------|
|-------------|-------5-----|-----5-----7-|
|-----3-----5-|-----7---7---|-----5---7---|
|---3-----5---|---7-------7-|-3-----5-----|
|-1-----3-----|-5-----------|-------------|
|
|-------------|-------------|-------------|
|-------------|-------1-----|-----1-----3-|
|-----------0-|-----2---2---|-----0---2---|
|-----3---0---|---2-------2-|---2---0-----|
|---3---------|-0-----------|-3-----------|
|-1-----3-----|-------------|-------------|


  Am            D5               Am
|-------------|----------------|-------------|
|-------------|----------------|-------1-----|
|-------5-----|-----7---7-5tr7-|-----2---2---|
|-----7---7---|---7------------|---2-------2-|
|---7-------7-|-5-----5--------|-0-----------|
|-5-----------|----------------|-------------|
|
|-------------|----------------|-------------|
|-------1-----|-----3---3------|-------1-----|
|-----2---2---|---2-------2----|-----2---2---|
|---2-------2-|-0-----0--------|---2-------2-|
|-0-----------|----------------|-0-----------|
|-------------|----------------|-------------|


  D5                 Am
                     ~
|------------------|----------------|
|------------------|----------------|
|---7-------7-5tr7-|----------------|
|-------5S7--------|-------5tr7-----|
|-5---5------------|----------------|
|------------------|-5--------------|
|
|------------------|----------------|
|-----3-3---1-0----|-------1--------|
|---2--------------|-----2------2---|
|-0----------------|---2----------2-|
|------------------|-0--------------|
|------------------|----------------|


                                                              Chorus II
  F             Am            G               G                N.C.
                                     ~~~             ~~~~~~~~~~~~~~~~~
|-------------|-------------|---------------|---------------||-----------|
|-------1-----|-------1-----|--------8------|--------8------||-----------|
|-----2---2---|-----2---2---|---------------|---------------||-----------|
|---3-------3-|---2-------2-|-5-5-5---------|-5-5-5---------||-----------|
|-------------|-0-----------|---------------|---------------||-/7---5----|
|-1-----------|-------------|---------------|---------------||-----------|
|
|                                                               ~~~~~~
|-------------|-------------|---------------|---------------||-----------|
|-------1-----|-------1-----|---------------|---------------||-----------|
|-----2---2---|-----2---2---|-----0-(0)---0-|-----0-(0)---0-||-----------|
|---3-------3-|---2-------2-|-----------0---|-----------0---||-----------|
|-------------|-0-----------|---2-----------|---2-----------||-/7---5----|
|-1-----------|-------------|-3-------------|-3-------------||-----------|


  N.C.      Am           G              C5        F
  ~~~~~~
|---------|---------------------------|----------------------|
|---------|-10----(10)----8-----(8)---|-5---(5)---6----(6)---|
|---------|-12b14-(12)---10b12-(10)---|-7b9-(7)---8b10-(8)---|
|---------|---------------------------|----------------------|
|-3-------|---------------------------|----------------------|
|-----7---|---------------------------|----------------------|
|
| ~~~~~~
|---------|---------------------------|----------------------|
|---------|------------1------------0-|----------------------|
|---------|---------2------------0----|---------5----------2-|
|---------|--2------------0-----------|------5----------3----|
|-3-------|---------------------------|-3--------------------|
|-----7---|--------------(3)----------|-----------1----------|


  Am                 G        C5              F
                                        ~~~~~~~~~~
|---------------------------|------------------------||
|-10----(10)----8-----(8)---|-5---(5)----------------||
|-12b14-(12)---10b12-(10)---|-7b9-(7)---8b10==(8)----||
|---------------------------|------------------------||
|---------------------------|------------------------||
|---------------------------|------------------------||
|
|---------------------------|------------------------||
|------------1------------0-|------------------------||
|---------2------------0----|---------5-----------2--||
|--2------------0-----------|------5-----------3-----||
|---------------------------|-3----------------------||
|---------------------------|-----------1------------||


 Intro Riff
  N.C.
  Gtr I
   ~~~
|-----------------------|-------------------|
|-----------------------|-------------------|
|-(8)-------------------|---------5h7-5-----|
|-----------------------|---7-5h7-------5h7-|
|-----------------------|-0-----------------|
|-----------------------|-------------------|
|
|             ~
|-----------------------|-------------------|
|-----------------------|-------------------|
|-------------5---------|---------5h7-5-----|
|-----5h7-5h7---5h7-----|---7-5h7-------5h7-|
|--0----------------5h7-|-0-----------------|
|-----------------------|-------------------|


                ~~~~
|-------------------------|---------------------||
|-------------------------|---------------------||
|---------5b7==(5)r==(5)--|---------------------||
|---7-5h7-----------------|---------------------||
|-0-----------------------|---5h7-5h7---5h7-5h7-||
|-------------------------|-0---------0---------||
|
|-------------------------|---------------------||
|-------------------------|---------------------||
|---------5b7-------------|---------------------||
|---7-5h7-------5h=7------|---------------------||
|-0-------------------5h7-|---5h7-5h7---5h7-5h7-||
|-------------------------|-0---------0---------||


                          Verse II
  N.C.                     Am              G     D5        Am
 9/8                      6/8
                      ~                          ~~~~~~
|-----------------------||---------------|---------------|-------------------|
|-----------------------||---------------|---------------|-------------------|
|---------------------5-||-------5-------|-------5b7r5---|-------5tr7--------|
|-------------------5---||---7-5-----5h7-|---7-5---------|---7-5--------5h7--|
|---5h7-5h7-3-4-5S7-----||-0-------0-----|-0-------------|-------------------|
|-0---------------------||---------------|---------------|-5----------5------|
|
|                     ~
|-----------------------||---------------|---------------|-------------------|
|-----------------------||-----------1---|-------------3-|--------------1----|
|---------------------5-||-----2---2-----|-----0-----2---|-----2------2------|
|-------------------5---||---2---2-------|---0---0-------|---2---2-----------|
|---5h7-5h7-3-4-5S7-----||-0-------------|---------------|-0-----------------|
|-0---------------------||---------------|-3-------------|-------------------|


  D5                     Am
          ~~~~
|----------------------|-------------------|
|----------------------|-------------------|
|---------5b7==(5)r(5)-|---------5---------|
|---7-5h7--------------|---7-5h7---5h7-----|
|-0--------------------|-0-------------5h7-|
|----------------------|-------------------|
|
|----------------------|-------------------|
|-----3---3-----1------|---------------1---|
|---2-----2-----0---0--|-----2-----2-------|
|-0-----------------0--|---2-----2---------|
|----------------------|-0-----------------|
|----------------------|-------------------|


  G      D5       Am
   ~~~~~~~~~
|---------------|--------------------|
|---------------|--------------------|
|--------/7-----|---------5----------|
|-/5------------|---7-5h7---5h7------|
|---------------|-0-------------5h7--|
|---------------|--------------------|
|
|---------------|--------------------|
|-------------3-|---------------1----|
|------0----2---|-----2-----2--------|
|----0----0-----|---2-----2----------|
|---------------|-0------------------|
|--3------------|--------------------|


                           Pre-Chorus II
  D5                        F5    G       Am                  C     D5
                      ~~~                                     ~            ~~~
|------------------------||-------------|-------------------|------------------|
|------------------------||-------------|-------------------|------------------|
|-----------5b7==(5)r(5)-||-------------|---------5---------|-----5--------7---|
|---7-5-(5)--------------||-----3-----5-|---7-5h7---5h7-----|-----5----7-------|
|-0----------------------||---3-----5---|-0-------------5h7-|-3-----5----------|
|------------------------||-1-----3-----|-------------------|------------------|
|
|------------------------||-------------|-------------------|------------------|
|-----3-----3-----1------||-------------|---------1---------|-----1--------3---|
|---2-------2-----0---0--||-------------|-----2-----2-------|----------2--(2)--|
|-0-------------------0--||-----3-----5-|---2-----------2---|---2---0-(0)------|
|------------------------||---3-----5---|-0-----------------|-3----------------|
|------------------------||-1-----3-----|-------------------|------------------|


  Am                  D5            Am
|-------------------|-------------|-------------|
|-------------------|-------------|-------1-----|
|---------5---------|-----7---7---|-----2---2---|
|---7-5h7---5h7-----|---7-------7-|---2-------2-|
|-0-------------5h7-|-5-----5-----|-0-----------|
|-------------------|-------------|-------------|
|
|-------------------|-------------|-------------|
|---------1---------|-----3---3---|-------1-----|
|-----2-----2-------|---2-------2-|-----2---2---|
|---2-----------2---|-0-----0-----|---2-------2-|
|-0-----------------|-------------|-0-----------|
|-------------------|-------------|-------------|


  D5                   Am
               ~
|--------------------|--------------|
|--------------------|-------1------|
|--------------5-----|-----2---2----|
|---7-5b7==(5)-------|---2-------2--|
|-0------------------|-0------------|
|--------------------|--------------|
|
|--------------------|--------------|
|-----3--------3-1-0-|-------1------|
|---2----------------|-----2---2----|
|-0------------0-----|---2-------2--|
|--------------------|-0------------|
|--------------------|--------------|


  F             Am            G               G
|-------------|-------------|---------------|----------------||
|-------1-----|-------1-----|---------------|----------------||
|-----2---2---|-----2---2---|-----0-(0)---0-|-----0-(0)---0--||
|---3-------3-|---2-------2-|-----------0---|-----------0----||
|-------------|-0-----------|---2-----------|---2------------||
|-1-----------|-------------|-3-------------|-3--------------||
|
|-------------|-------------|---------------|----------------||
|-------1-----|-------1-----|---------------|----------------||
|-----2---2---|-----2---2---|-----0-(0)---0-|-----0-(0)---0--||
|---3-------3-|---2-------2-|-----------0---|-----------0----||
|-------------|-0-----------|---2-----------|---2------------||
|-1-----------|-------------|-3-------------|-3--------------||


 Chorus II
  N.C.                  Am        G
   ~~~~~~~~~~~~~~~~~~~~~~~~~~~~~~~~~~~~~~~~
|----------|----------|-------------------|
|----------|----------|-10-(10)---8-(8)---|
|----------|----------|-------------------|
|----------|----------|-------------------|
|-/7---5---|-3--------|-------------------|
|----------|-----/7---|-------------------|
|
|  ~~~~~~~~~~~~~~~~~
|----------|----------|-------------------|
|----------|----------|---------1-------0-|
|----------|----------|------2-------0----|
|----------|----------|--2--------0-------|
|-/7---5---|-3--------|-------------------|
|----------|-----/7---|-------------------|


  C5      F         Am        G
 ~~~~~~~~~~~~~~~~~~~~~~~~~~~~~~~~~~~
|-----------------|--------------------|
|-5-(5)---6-(6)---|-10-(10)---8-(8)----|
|-----------------|--------------------|
|-----------------|--------------------|
|-----------------|--------------------|
|-----------------|--------------------|
|
|-----------------|--------------------|
|-----------------|---------1-------0--|
|-------5-------2-|------2-------0-----|
|----5-------3----|--2--------0--------|
|-3---------------|--------------------|
|---------1-------|--------------------|


                    Breakdown
  C5      F          N.C.
|-----------------||---------------------|
|-5-(5)---6-(6)---||---------------------|
|-----------------||---------------------|
|-----------------||---------------------|
|-----------------||---5h7-5h7---5h7-5h7-|
|-----------------||-0---------0---------|
|
|-----------------||---------------------|
|-----------------||---------------------|
|-------5-------2-||---------------------|
|----5-------3----||---------------------|
|-3---------------||---5h7-5h7---5h7-5h7-|
|---------1-------||-0---------0---------|


                        Guitar Solo
                         Am
                         Gtr III
|---------------------||-----------------|
|---------------------||-----------------|
|---------------------||-----------------|
|---------------------||-----------------|
|---5h7-5h7---5h7-5h7-||-------5---------|
|-0---------0---------||-5-7-8---7h8p7-5-|
|
|---------------------||-----------------|
|---------------------||---------------1-|
|---------------------||-----2---2-------|
|---------------------||---2---2---------|
|---5h7-5h7---5h7-5h7-||-0---------------|
|-0---------0---------||-----------------|


  G                  Am
                          ~~~~~~~~
|------------------|-------------------------------|
|------------------|---------------------5---------|
|------------------|----------------5tr7---5b6.5---|
|------------------|-/7b9-7---(7)-7--------------7-|
|-------------/9-7-|-------------------------------|
|-7-5h7p5-3-5------|-------------------------------|
|
|------------------|-------------------------------|
|----------------3-|-----------------------1-------|
|---------0----2---|--------2-------2--------------|
|---0-------0------|------2----2-------------------|
|------------------|--0----------------------------|
|-3----------------|-------------------------------|


  D5                       Am
                ~
|------------------------|-----5------5--------|
|-------------------8b10-|-(8)---8b10---8------|
|-5b7==(5)r-5h7-5--------|----------------7-5--|
|------------------------|---------------------|
|------------------------|---------------------|
|------------------------|---------------------|
|
|------------------------|---------------------|
|-----------3---3-1------|------------------1--|
|-------2-------2-0-0----|-------2--------2----|
|-0-----------------0----|-----2--------2------|
|------------------------|--0------------------|
|------------------------|---------------------|


  G               D5         Am
                    ~~~~               ~
|---5----------------------|-----------------|
|-----8-5h7-------8--------|-----------------|
|-7---------7-------5b8====|=(5)r==(5)-------|
|-------------7b9----------|-----------7-----|
|--------------------------|-----------------|
|--------------------------|-----------------|
|
|--------------------------|-----------------|
|------------------------3-|---------------1-|
|-----------0-------2------|--------2----2---|
|-----0-----------0--------|-----2-----2-----|
|--------------------------|--0--------------|
|-3------------------------|-----------------|


  D5                          F5        G
                                            ~
|---------------------------|-----------------|
|---------------------------|-----------------|
|---------------------------|-----------------|
|-(7)-5-7-5---5-------------|---------------5-|
|-----------7---7-6-------5-|-5b7-(5)---5-7---|
|-------------------8b9.5---|---------8-------|
|
|---------------------------|-----------------|
|---------3---3---1---------|-----------------|
|-----2-------2---0-------0-|-----------------|
|--0----------------------0-|---------3-----5-|
|---------------------------|------3------5---|
|---------------------------|-1---------3-----|


  Am                    C               D5
  ~
|---------------------|-------------------------|
|---------------------|-------------------8-----|
|---------5h7p5---5-7-|---5h7p5---5h7p5-7----9--|
|-7-----7-------7-----|-7-------7---------------|
|---------------------|-------------------------|
|---------------------|-------------------------|
|
|---------------------|-------------------------|
|-------1-------------|-----------1----------3--|
|-----2-----2---------|-----------0-------2-(2)-|
|---2-------------2---|-------2---------0-2-----|
|-0-------------------|-3-----------------------|
|---------------------|-------------------------|


  Am                  D5
              ~~~~~
|-------------------|-15-15b17-15b17-15-15--------|
|---------------10--|----------------------17-15--|
|-12b14-------9-----|-----------------------------|
|-------------------|-----------------------------|
|-------------------|-----------------------------|
|-------------------|-----------------------------|
|
|-------------------|-----------------------------|
|-----------1-------|-----------3--------3--------|
|---------2---2-----|-----2--------------------2--|
|-------2--------2--|--0--------------0-----------|
|--0----------------|-----------------------------|
|-------------------|-----------------------------|


  Am                                    D5
|-------------------------------------|-------------------------------------|
|-13-15-13----13----------------------|-------------------------------------|
|----------14----14-12----------------|----------------12----------12----14-|
|----------------------14-12-10-12-10-|-12----10-12-14----14-12-14----14----|
|-------------------------------------|----12-------------------------------|
|-------------------------------------|-------------------------------------|
|
|-------------------------------------|-------------------------------------|
|--------------------1----------------|--------------3-----3-----1-----0----|
|--------------2-----------2----------|--------2----------------------------|
|--------2-----------------------2----|--0-----------------0----------------|
|--0----------------------------------|-------------------------------------|
|-------------------------------------|-------------------------------------|


  Am                 F
   ~~
|------------------|------------------------------|
|------------------|------------13------------13--|
|-12-----------12--|-12b14-(12)----12b14-(12)-----|
|----------/14-----|------------------------------|
|------------------|------------------------------|
|------------------|------------------------------|
|
|------------------|------------------------------|
|--------1---------|----------------1-------------|
|------2-----2-----|-------------2---------2------|
|----2----------2--|---------3-----------------3--|
|--0---------------|------------------------------|
|------------------|--1---------------------------|


  A5                       G
                             ~~~~
|------------------------|--15--------------||
|-13b15===(13)r=(13)b14--|-(13)-------------||
|------------------------|------------------||
|------------------------|------------------||
|------------------------|------------------||
|------------------------|------------------||
|
|------------------------|------------------||
|------------------------|------------------||
|--2---------------------|--------0-(0)---0-||
|--2---------------------|--------------0---||
|--0---------------------|------2-----------||
|------------------------|---3--------------||


 Out-Chorus
  G               N.C.
  Gtr I
                   ~~~~~~~~~~~~~~~~~
|---------------|----------|-----------|
|---------------|----------|-----------|
|-----0-(0)---0-|----------|-----------|
|-----------0---|----------|-----------|
|---2-----------|-/7---5---|-3---------|
|-3-------------|----------|-----/7----|
|
|                  ~~~~~~~~~~~~~~~~~
|---------------|----------|-----------|
|---------------|----------|-----------|
|-----0-(0)---0-|----------|-----------|
|-----------0---|----------|-----------|
|---2-----------|-/7---5---|-3---------|
|-3-------------|----------|-----/7----|


  Am    G     C5      G                               N.C.
 9/8                 6/8
                                                       ~~~~~~~~~~~~~~~~~
|-------------------|---------------|---------------|----------|----------|
|-------------------|---------------|---------------|----------|----------|
|-------------------|-------------4-|-------------4-|----------|----------|
|-------------------|-----5-----5---|-----5-----5---|----------|----------|
|-------------3-----|---5----5------|---5----5------|-/7---5---|-3--------|
|-5-----3-----------|-3-------------|-3-------------|----------|-----/7---|
|
|                                                      ~~~~~~~~~~~~~~~~~
|-------------------|---------------|---------------|----------|----------|
|-----1-----0-------|---------------|---------------|----------|----------|
|---2-----0-------5-|-----0-(0)---0-|-----0-(0)---0-|----------|----------|
|-2-----0-------5---|-----------0---|-----------0---|----------|----------|
|-------------3-----|---2-----------|---2-----------|-/7---5---|-3--------|
|-------------------|-3-------------|-3-------------|----------|-----/7---|


                        1.,2.               3.=H
    Am        G         C5        F         C5        F       Am
                                                             8/8
                                                               ~~
                                         3x
||---8--(8)---7-(7)---|-3-(3)---5-(5)----||-3-(3)---5-(5)---|--8----*|
||o-10-(10)---8-(8)---|-5-(5)---6-(6)---o||-5-(5)---6-(6)---|-10----*|
||--------------------|------------------||-----------------|-------*|
||--------------------|------------------||-----------------|-------*|
||o-------------------|-----------------o||-----------------|-------*|
||--------------------|------------------||-----------------|-------*|
|
|                                        3x
||--------------------|------------------||-----------------|-^0----*|
||o---------1-------0-|-----------------o||---------------1-|-^1----*|
||-------2-------0----|-------5-------2--||-------5----2----|-^2----*|
||---2--------0-------|----5-------3-----||----5----3-------|-^2----*|
||o-------------------|-3---------------o||-3---------------|-^0----*|
||--------------------|---------1--------||-----------------|-------*|


Tablature Legend
----------------
 h   - hammer-on
 p   - pull-off
 b   - bend
 pb  - pre-bend
 r   - bend release (if no number after the r, then release immediately)
 /\  - slide into or out of (from/to "nowhere")
 s   - legato slide
 S   - shift slide
  - natural harmonic
[n]  - artificial harmonic
n(n) - tapped harmonic
 ~   - vibrato
 tr  - trill
 T   - tap
 TP  - trem. picking
 PM  - palm muting
\n/  - tremolo bar dip; n = amount to dip
 \n  - tremolo bar down
 n/  - tremolo bar up
/n\  - tremolo bar inverted dip
 =   - hold bend; also acts as connecting device for hammers/pulls
   - volume swell (louder/softer)
 x   - on rhythm slash represents muted slash
 o   - on rhythm slash represents single note slash

Misc Legend
-----------
 |  - bar
||  - double bar
||o - repeat start
o|| - repeat end
*|  - double bar (ending)
 :  - bar (freetime)
 $  - Segno
 &  - Coda





Comments


Popular Rainbow tabs & chords
Black Sheep Of The Family Bass Tabs
I Surrender Bass Tabs
Since You Ve Been Gone Bass Tabs
Sixteenth Sentury Greensleeves Bass Tabs
Eyes Of The World Chords
Ill Never Cry Chords
Anybody There Tabs
Cold Hearted Woman Tabs
Jealous Lover Tabs
Since You've Been Gone Tabs


Song lyrics



↑ Back to top | Tablatures and chords are parodies/interpretations of the original songs. You may use it for private study, scholarship, research or language learning purposes only
© 2014 AZChords.com Contact us | Privacy policy | DMCA | Add/correct tabs | Request tabs | Top 50 tabs