» » »

Since You Ve Been Gone Bass tabs (ver.4)

Artists:  A B C D E F G H I J K L M N O P Q R S T U V W X Y Z # 

Since You Ve Been Gone Bass tabs (ver.4)

Rainbow
Rating:
0/5 (0 votes)

Tabs too difficult? Try these video lessons and learn fast.
                Rainbow - since you've been gone

Intro
G|-----------------------------------------------|
D|*----------------------------------------------|
A|*-----------5-5--7-7-7--3-3------5-7-3-3-3-5-5-|
E|----12/3-3-3----------------3-3-3--------------|

G|-----------------------------------------------|
D|*----------------------------------------------|
A|*--------5-5--7-7-7--3-3--------5-7-3/5--------|
E|----3-3-3------------------3-3-3---------------|

Verse
G|---------------------------------------------------------------|
D|*---5--4--2----------------------5--4--2--------------5--4--2--|
A|*-----------5--3--2--0--2--3--5-----------5--3--2--0-----------|
E|---------------------------------------------------------------|

G|-------------------------------------------------------|
D|*-------------7----------------------------------------|
A|*---6----6--8---8-6----5-3-0-2-3-5---------------------|
E|-------------------------------------------------------|

Chorus
G|-------------------------------------------------|
D|*------------------------------------------------|
A|*-----------5-5--7-7-7--3-3--------5-7-3-3-3-5-5-|
E|----3-3-3--------------------3-3-3---------------|

Verse
G|---------------------------------------------------------------|
D|*---5--4--2----------------------5--4--2--------------5--4--2--|
A|*-----------5--3--2--0--2--3--5-----------5--3--2--0-----------|
E|---------------------------------------------------------------|

G|-------------------------------------------------------|
D|*-------------7----------------------------------------|
A|*---6----6--8---8-6----5-3-0-2-3-5---------------------|
E|-------------------------------------------------------|

Bridge                              x2
G|------------------------------------|
D|*----------------------2------------|
A|*---------2--3--5--2-5---5--3-2---5-|
E|----3--5------------------------5---|

Chorus                                  Rpt to fade
G|-------------------------------------------------|
D|*------------------------------------------------|
A|*-----------7-7--9-9-9--5-5--------7-9-5-5-5-3-3-|
E|----5-5-5--------------------5-5-5---------------|
            
Tabs too difficult? Try these video lessons and learn fast.




comments powered by Disqus
↑ Back to top | Tablatures and chords are parodies/interpretations of the original songs. You may use it for private study, scholarship, research or language learning purposes only