» » »

Rainbow, Rainbow Eyes Tabs (ver.2)

Artists:  A B C D E F G H I J K L M N O P Q R S T U V W X Y Z # 

Rainbow Eyes Tabs (ver.2)

Rainbow Tabs
 Rating:
4/5 (4 votes)
Rainbow Eyes lessons Tabs too difficult? Try these video lessons and learn fast
                (Intro)

*****NOTE:Capo on 1st fret, if you dont have a capo... well never mind*****


----------------------|-------2--0---|-------------------|--------------------
----3/5\3------------0|-1--1---------|---3/5\3-----------|-------1-1h3h1--1---
-----------4-2-0--2---|---2--2-------|---------4-2-0--2-4|---0h2--------------
----------------------|--------------|-------------------|-2------------------
----------------------|--------------|-------------------|3-------------------
-0--------------------|--------------|-0-----------------|--------------------
                                                                              

-------|--------------------------------------------------------------3--2--0-
-------|-----1h3h1---------------/5--7-8--7h8h7-5-3/5\3--3/5-1--3/5-3---------
-2-----|-----------2--0--2----------------------------------------------------
-------|----2-----------------------------------------------------------------
---0---|--0-------------------------------------------------------------------
-------|---------------------0------------------------------------------------
                                                                              

So thats it, 
 Thats the intro of this beuatifull love song.

I reccomend to all of you guys out there
 to practice this one 
 and play it for your girl.

i'm pretty sure that this tab is at least 85% correct.
 if you have somthing to add/change/whatever E mail me.
            
Submit corrections

comments powered by Disqus
↑ Back to top | Rainbow Tabs for Rainbow Eyes. Lyrics for acoustic guitar and electric guitar. Tablatures and chords are parodies/interpretations of the original songs. You may use it for private study, scholarship, research or language learning purposes only