>
 >
Long Live Rock N' Roll

Long Live Rock N' Roll Bass Tabs

Rainbow - Long Live Rock N' Roll chords, tabs, tablatures, lyrics

Guitar lessons | Add/correct | Request | Top 50 tabs Artists:  A B C D E F G H I J K L M N O P Q R S T U V W X Y Z 0-9

Long Live Rock N' Roll Bass Tabs – Rainbow

CD, Sheet music, Poster

Do you like Long Live Rock N' Roll? Share with your friends now
Bass Tabs


this is 100 % correct

                           |. |
   --33-- is played like --3--3-   but you will hear that

    p
   5>3  is a pulloff


Intro/Chorus                           first ending

G|------|-----------------------------|------------------------------p----||
D|------|o----------------------------|----------------------------5>3---o||
A|------|o-------------------------33-|-33-----------------------------5-o||
E|1-2-3|--33--33--33--33--11--11-----|-----33--33--33--33--1--1-3--------||

                                        second ending
                                        |---------------------------------||
                                        |5-3------------------------------||
                                        |----5-3--------------------------||
                                        |--------6-3-1-2-3----------------||

[Verse]                                                   first ending
G|--------------p-----------------p-----------------p----|----p--3--------||
D|-------------5>3---------------5>3---------------5>3---|---5>3---5>3-- o||
A|-----------------5-----------------5-----------------5-|-------------5 o||
E|--33--33--33--------33--33--33--------33--33--33-------|33--------------||
                                                          second ending 
                                    ---------------------|-----------||
                                    ---------------------|-----------||
                                    ---------------------|-----------||
                                    ---------------------|33--33--3--||

[Pre Chorus]
G|----------------------------------------------------p--------------||
D|------------------------11--11---------------------5>3-------------||
A|-1-0--------0--3-1-0-----------------------------------5-----------||
E|-----3-1--3----------3---------11--11--33--33--33------------------||

G|-------------------------------------------------------------------||
D|-------------------------------------------------------------------||
A|-1-0--------0--3-1-0-----------------------------------------------||
E|-----3-1--3----------3--111111111111111111--1-2-3------------------||

[Chorus]

[Verse]

[Pre-Chorus]

[Chorus]

[Solo]
G|-----------------|    --------------------------------------------------||
D|o---------------o|    -5-4-3------------5--5--5--5--5--5--5-------------||
A|o---------------o| x3 -------7-6-5-4-3----------------------------------||
E|-33--33--33--33--|    ------------------3--3--3--3--3--3--3-------------||

[Verse 2]
G|---------------p------|    ------------||
D|o-------------5>3----o|    ------------||
A|o-----------------5--o| x7 ------------||
E|--33--33--33----------|    -33--33--3--||

[Pre-Chorus]

[Chorus]

[Verse]

[Pre-Chorus]

[Chorus] ...





Comments


Popular Rainbow tabs & chords
Gates Of Babylon 2 Bass Tabs
Long Live Rock N Roll Bass Tabs
Wolf To The Moon Bass Tabs
Bye Bye Baby Chords
Catch The Rainbow Chords
Street Of Dreams Chords
Catch The RainbowSolo Tabs
Kill The King (Intro Ver 2) Tabs
Kill The King 1 Tabs
Ill Never Cry Ukulele


Song lyrics



↑ Back to top | Tablatures and chords are parodies/interpretations of the original songs. You may use it for private study, scholarship, research or language learning purposes only
© 2014 AZChords.com Contact us | Privacy policy | DMCA | Add/correct tabs | Request tabs | Top 50 tabs