» » »

La Connection Tabs (ver.1)

Artists:  A B C D E F G H I J K L M N O P Q R S T U V W X Y Z # 

La Connection Tabs (ver.1)

Rainbow
Rating:
0/5 (0 votes)

Hard to play? Try these video lessons and learn fast.
                (Intro)
LA connection by rainbow

E|---------------------------------------------------------------|
B|--3------------------3------------------3----------------------|
G|--2-------2----------2-------2----------2----------------------|
D|--0-------2----------0-------2----------0----------------------|
A|----3-0---0--0-3-0-----3-0---0--0-3-0-----3--------------------|
E|--------3----------3-------3----------3------------------------|


E|-------------------------------------------------------------------------|
B|--3----------------------3------------------------------------------3----|
G|--2-------2----------2---2-------2----------------------------------2----|
D|--0-------2----------2---0-------2----------------------------------0----|
A|----3-0---0--0-3-0---0-----3-0---0--0-3-0---0-3-0---0-3-0---0-3-0--------|
E|--------3----------3---3-------3----------3-------3-------3-------3------|
            
Hard to play? Try these video lessons and learn fast. | Correct




comments powered by Disqus
↑ Back to top | Tablatures and chords are parodies/interpretations of the original songs. You may use it for private study, scholarship, research or language learning purposes only