>
 >
Kill The King 1

Kill The King 1 Guitar Tabs

Rainbow - Kill The King 1 chords, tabs, tablatures, lyrics

Guitar lessons | Add/correct | Request | Top 50 tabs Artists:  A B C D E F G H I J K L M N O P Q R S T U V W X Y Z 0-9

Kill The King 1 Guitar Tabs – Rainbow

CD, Sheet music, Poster

Do you like Kill The King 1? Share with your friends now
TabsTabs v2
                                Kill The King - Rainbow                                 


                                                                         
Ritchie Blackmore
Tuning:Standard
Tempo:135 bpm



                          Intro                         
     W                    Q     E   E   E   E   E   E   
E||-------------------|--------10----------10----------|
B||-------------------|------------11----------11------|
G||-------------------|--12------------12----------12--|
D||-------------------|--------------------------------|
A||-------------------|--------------------------------|
E||-------------------|--------------------------------|


   E   E   E   E   E   E   E   E      Q     E   E   E   E   E   E   
--10----------10----------10------|--------10----------10----------|
------11----------11----------11--|------------11----------11------|
----------12----------12----------|--12------------12----------12--|
----------------------------------|--------------------------------|
----------------------------------|--------------------------------|
----------------------------------|--------------------------------|


   E   E   E   E   E   E   E   E      Q     E   E   E   E   E   E   
--10----------10----------10------|--------10----------10----------|
------11----------11----------11--|------------11----------11------|
----------12----------12----------|--12------------12----------12--|
----------------------------------|--------------------------------|
----------------------------------|--------------------------------|
----------------------------------|--------------------------------|


   E   E   E   E   E   E   E   E      Q     E   E   E   E   E   E   
--10----------10----------10------|--------10----------10----------|
------11----------11----------11--|------------11----------11------|
----------12----------12----------|--12------------12----------12--|
----------------------------------|--------------------------------|
----------------------------------|--------------------------------|
----------------------------------|--------------------------------|


   Q.      E  Q     Q        Q     E   E   E   E   E   E   
-------------------------|--------10----------10----------|
--13------13--L----13----|------------11----------11------|
-------------------------|--12------------12----------12--|
-------------------------|--------------------------------|
-------------------------|--------------------------------|
-------------------------|--------------------------------|


   E   E   E   E   E   E   E   E      Q     E   E   E   E   E   E   
--10----------10----------10------|--------10----------10----------|
------11----------11----------11--|------------11----------11------|
----------12----------12----------|--12------------12----------12--|
----------------------------------|--------------------------------|
----------------------------------|--------------------------------|
----------------------------------|--------------------------------|


   E   E   E   E   E   E   E   E      Q     E   E   E   E   E   E   
--10----------10----------10------|--------10----------10----------|
------11----------11----------11--|------------11----------11------|
----------12----------12----------|--12------------12----------12--|
----------------------------------|--------------------------------|
----------------------------------|--------------------------------|
----------------------------------|--------------------------------|


   E   E   E   E   E   E   E   E      Q     E   E   E   E   E   E   
--10----------10----------10------|--------10----------10----------|
------11----------11----------11--|------------11----------11------|
----------12----------12----------|--12------------12----------12--|
----------------------------------|--------------------------------|
----------------------------------|--------------------------------|
----------------------------------|--------------------------------|


                            Main Riff                                        
   Q.      E  Q     Q       H.           E  E     E  E  E  E  E  E  E    E   
-------------------------|---------------------|----------------------------|
--13------13--L----13----|---------------------|----------------------------|
-------------------------|------------------3--|-----5-----3-----------3g5--|
-------------------------|--5---------------3--|-----5-----3-----5-----3g5--|
-------------------------|--5------------------|-----------------5----------|
-------------------------|---------------------|----------------------------|


  H.           E  E     Q.     E  H           H.           E  E   
---------------------|---------------------|---------------------|
---------------------|---------------------|---------------------|
--L------------L--3--|--L------------------|------------------3--|
--L------------L--3--|--L------3--L--------|--5---------------3--|
---------------------|---------3--L--------|--5------------------|
---------------------|---------------------|---------------------|


  E  E  E  E  E  E  E  E     H.           E  E     Q.     E   H         
--------------------------|---------------------|----------------------|
--------------------------|---------------------|----------------------|
-----5-----3--L--------3--|--L------------L-----|---------3S--5--------|
-----5-----3--L--5-----3--|--L------------L--3--|--L------3S--5--------|
-----------------5--------|------------------3--|--L-------------------|
--------------------------|---------------------|----------------------|


  H.           E  E     E  E  E  E  E  E  E    E     H.           Q     
---------------------|----------------------------|--------------------|
---------------------|----------------------------|--------------------|
------------------3--|-----5-----3--L--------3g5--|--L-----------------|
--5---------------3--|-----5-----3--L--5-----3g5--|--L-----------------|
--5------------------|-----------------5----------|--------------------|
---------------------|----------------------------|--------------------|


  Q    E  E  H           H.           E  E     E  E  E  E  E  E  E    E   
----------------------|---------------------|----------------------------|
----------------------|---------------------|----------------------------|
--3-------------------|------------------3--|-----5-----3--L--------1g3--|
--3-------3--L--------|--5---------------3--|-----5-----3--L--5-----1g3--|
----------3--L--------|--5------------------|-----------------5----------|
-------1--------------|---------------------|--------------------3-------|


                                            Verses                       
  W                   Q.     E  H           E      E  E  E  E  E  E  E   
-------------------|---------------------|------------------------------|
-------------------|---------------------|------------------------------|
--L----------------|---------5--L--------|------------------------------|
--L----------------|--3------5--L--------|------------------------------|
-------------------|--3------------------|------------------------------|
-------------------|---------------------|--1h-----3--3--3--3--3--3--3--|


  E   E  E  E  E  E  E  E     E   E  E  E  E  E  E  E     Q.     E   H         
---------------------------|---------------------------|----------------------|
---------------------------|---------------------------|----------------------|
---------------------------|---------------------------|----------------------|
---------------------------|---------------------------|----------------------|
---------------------------|---------------------------|---------3S--L--------|
--1h--3--3--3--3--3--3--3--|--1h--3--3--3--3--3--3--3--|--1-------------------|


  E   E  E  E  E  E  E  E     E   E  E  E  E  E  E  E   
---------------------------|---------------------------|
---------------------------|---------------------------|
---------------------------|---------------------------|
---------------------------|---------------------------|
---------------------------|---------------------------|
--1h--3--3--3--3--3--3--3--|--1h--3--3--3--3--3--3--3--|


  E   E  E  E  E  E  E  E     Q.     E   H           Q    E  E  E  E  E  E   
---------------------------|----------------------|-------------------------|
---------------------------|----------------------|-------------------------|
---------------------------|----------------------|-------------------------|
---------------------------|----------------------|-------------------------|
---------------------------|---------3S--L--------|-------------------------|
--1h--3--3--3--3--3--3--3--|--1-------------------|--1----1--1--1--1--1--1--|


  Q    E  E  E  E  E  E     Q.     Q.     Q       H        E  E  E  E    
-------------------------|---------------------|------------------------|
-------------------------|---------------------|------------------------|
-------------------------|---------------------|------------------------|
-------------------------|---------------------|--L---------------------|
-------------------------|--3------3------3----|--3--------L--3--5--6~--|
--1----1--1--1--1--1--1--|---------------------|------------------------|


  H        E  E  E  E      H        E  E  E   E      Q    Q    H         
------------------------|-------------------------|---------------------|
------------------------|-------------------------|---------------------|
------------------------|-------------------------|---------------------|
------------------------|-------------------------|------------5--------|
--L--------L--5--6--8~--|--L--------L--6--8--10~--|--L------------------|
------------------------|-------------------------|-------3-------------|


  E  E  E  E  E  E  E  E     Q    Q    H           H.           Q     
--------------------------|---------------------|--------------------|
--------------------------|---------------------|--------------------|
--------------------------|---------------------|--------------------|
--5--5--3-----3--5--3-----|------------8--------|--L-----------------|
-----------5-----------5--|-------8-------------|--------------------|
--------------------------|--6------------------|---------------8----|


   W                    H        E  E  E  E      H        E  E  E  E   
---------------------|------------------------|-----------------------|
---------------------|------------------------|-----------------------|
---------------------|------------------------|-----------------------|
---------------------|--------------5--3--1~--|--L--------L--0--1--3--|
---------------------|------------------------|-----------------------|
--10~----------------|--3--------L------------|-----------------------|


  H        E  E  E  E      H        E  E  E  E      Q    H.             
------------------------|------------------------|---------------------|
------------------------|------------------------|---------------------|
------------------------|------------------------|-------7~------------|
--L--------L--1--3--5~--|--L--------L--4--5--7~--|--L------------------|
------------------------|------------------------|---------------------|
------------------------|------------------------|---------------------|


  W                   E  E  E  E  E  E  E  E     Q    H.            
-------------------|--------------------------|--------------------|
-------------------|--------------------------|--------------------|
--L----------------|--2--3--2--0--2--0--------|--------------------|
-------------------|--------------------3--1--|--0-----------------|
-------------------|--------------------------|--------------------|
-------------------|--------------------------|--------------------|


  Riff                                                                   
  H.           E  E     E  E  E  E  E  E  E    E     H.           E  E   
---------------------|----------------------------|---------------------|
---------------------|----------------------------|---------------------|
------------------3--|-----5--L--3--L--------3g5--|--L---------------3--|
--5---------------3--|-----5--L--3--L--5-----3g5--|--L---------------3--|
--5------------------|-----------------5----------|---------------------|
---------------------|--------------------3-------|---------------------|


  Q.     E  H           H.           E  E     E  E  E  E  E  E  E  E   
---------------------|---------------------|--------------------------|
---------------------|---------------------|--------------------------|
--L------------------|------------------3--|-----5--L--3--L--------3--|
--L------3--L--------|--5---------------3--|-----5--L--3--L--5-----3--|
---------3--L--------|--5------------------|-----------------5--------|
---------------------|---------------------|--------------------3-----|


  H.           E  E     Q.     E   H           H.           E  E   
---------------------|----------------------|---------------------|
---------------------|----------------------|---------------------|
--L------------------|---------3S--5--------|------------------3--|
--L---------------3--|--L------3S--5--------|--5---------------3--|
------------------3--|--L-------------------|--5------------------|
---------------------|----------------------|---------------------|


  E  E  E  E  E  E  E    E     H.           E  E     Q.     E  H         
----------------------------|---------------------|---------------------|
----------------------------|---------------------|---------------------|
-----5--L--3--L--------3g5--|--L---------------3--|--L------------------|
-----5--L--3--L--5-----3g5--|--L---------------3--|--L------3--L--------|
-----------------5----------|---------------------|---------3--L--------|
--------------------3-------|---------------------|---------------------|


  H.           E  E     E  E  E  E  E  E  E  E     H.           E  E   
---------------------|--------------------------|---------------------|
---------------------|--------------------------|---------------------|
------------------3--|-----5--L--3--L--------3--|--L------------------|
--5---------------3--|-----5--L--3--L--5-----3--|--L---------------3--|
--5------------------|-----------------5--------|------------------3--|
---------------------|--------------------3-----|---------------------|


                         Verses II                                              
  Q.     E   H           Q         E  E  E  E  E  E     Q    E  E  E  E  E  E   
----------------------|------------------------------|-------------------------|
----------------------|------------------------------|-------------------------|
---------3S--5--------|------------------------------|-------------------------|
--L------3S--5--------|------------------------------|-------------------------|
--L-------------------|------------------------------|-------------------------|
----------------------|--1---------3--3--3--3--3--3--|--1----3--3--3--3--3--3--|


  Q    E  E  E  E  E  E     Q.     E  H           Q    E  E  E  E  E  E   
-------------------------|---------------------|-------------------------|
-------------------------|---------------------|-------------------------|
-------------------------|---------------------|-------------------------|
-------------------------|---------------------|-------------------------|
-------------------------|---------3--L--------|-------------------------|
--1----3--3--3--3--3--3--|--1------------------|--1----3--3--3--3--3--3--|


  Q    E  E  E  E  E  E     Q    E  E  E  E  E  E     Q.     E  H         
-------------------------|-------------------------|---------------------|
-------------------------|-------------------------|---------------------|
-------------------------|-------------------------|---------------------|
-------------------------|-------------------------|---------------------|
-------------------------|-------------------------|---------3--L--------|
--1----3--3--3--3--3--3--|--1----3--3--3--3--3--3--|--1------------------|


  Q    E  E  E  E  E  E     Q    E  E  E  E  E  E     Q.     Q.     Q     
-------------------------|-------------------------|---------------------|
-------------------------|-------------------------|---------------------|
-------------------------|-------------------------|---------------------|
-------------------------|-------------------------|---------------------|
-------------------------|-------------------------|--3------3------3----|
--1----1--1--1--1--1--1--|--1----1--1--1--1--1--1--|---------------------|


  H        E  E  E  E     H        E  E  E  E      H        E  E  E  E    
-----------------------|------------------------|------------------------|
-----------------------|------------------------|------------------------|
-----------------------|------------------------|------------------------|
--L--------------------|------------------------|--------------------5~--|
--3--------L--3--5--6--|--L--------L--5--6--8~--|--L--------L--6--8------|
-----------------------|------------------------|------------------------|


  Q    Q    H           Q    E  E  E  E  E  E     Q    Q    H         
---------------------|-------------------------|---------------------|
---------------------|-------------------------|---------------------|
---------------------|-------------------------|---------------------|
--L---------5--------|--5----3-----3--5--3-----|------------8--------|
---------------------|----------5-----------5--|-------8-------------|
-------3-------------|-------------------------|--6------------------|


  H.           Q        W                   H        E  E  E  E    
--------------------|--------------------|------------------------|
--------------------|--------------------|------------------------|
--------------------|--------------------|------------------------|
--L-----------------|--------------------|--------------5--3--1~--|
--------------------|--------------------|------------------------|
---------------8----|--10----------------|--3--------L------------|


  H        E  E  E  E      H        E  E  E  E      H        E  E  E  E    
------------------------|------------------------|------------------------|
------------------------|------------------------|------------------------|
------------------------|------------------------|------------------------|
--L--------L--0--1--3~--|--L--------L--1--3--5~--|--L--------L--4--5--7~--|
------------------------|------------------------|------------------------|
------------------------|------------------------|------------------------|


  Q    H.               W                   E  E  E  E  E  E  E  E   
---------------------|-------------------|--------------------------|
---------------------|-------------------|--------------------------|
-------7~------------|--L----------------|--2--3--2--0--2--0--------|
--L------------------|-------------------|--------------------3--1--|
---------------------|-------------------|--------------------------|
---------------------|-------------------|--------------------------|


                        Pre-Solo                         
  Q    H.               Q        E   E   E   E   E   E   
--------------------|-----------10----------10----------|
--------------------|---------------11----------11------|
--------------------|--12---------------12----------12--|
--0-----------------|-----------------------------------|
--------------------|-----------------------------------|
--------------------|-----------------------------------|


   E   E   E   E   E   E   E   E      Q     E   E   E   E   E   E   
--10----------10----------10------|--------10----------10----------|
------11----------11----------11--|------------11----------11------|
----------12----------12----------|--12------------12----------12--|
----------------------------------|--------------------------------|
----------------------------------|--------------------------------|
----------------------------------|--------------------------------|


   E   E   E   E   E   E   E   E      Q     E   E   E   E   E   E   
--10----------10----------10------|--------10----------10----------|
------11----------11----------11--|------------11----------11------|
----------12----------12----------|--12------------12----------12--|
----------------------------------|--------------------------------|
----------------------------------|--------------------------------|
----------------------------------|--------------------------------|


   E   E   E   E   E   E   E   E      Q     E   E   E   E   E   E   
--10----------10----------10------|--------10----------10----------|
------11----------11----------11--|------------11----------11------|
----------12----------12----------|--12------------12----------12--|
----------------------------------|--------------------------------|
----------------------------------|--------------------------------|
----------------------------------|--------------------------------|


   Q.      E  Q     Q        Q     E   E   E   E   E   E   
-------------------------|--------10----------10----------|
--13------13--L----13----|------------11----------11------|
-------------------------|--12------------12----------12--|
-------------------------|--------------------------------|
-------------------------|--------------------------------|
-------------------------|--------------------------------|


   E   E   E   E   E   E   E   E      Q     E   E   E   E   E   E   
--10----------10----------10------|--------10----------10----------|
------11----------11----------11--|------------11----------11------|
----------12----------12----------|--12------------12----------12--|
----------------------------------|--------------------------------|
----------------------------------|--------------------------------|
----------------------------------|--------------------------------|


   E   E   E   E   E   E   E   E      Q     E   E   E   E   E   E   
--10----------10----------10------|--------10----------10----------|
------11----------11----------11--|------------11----------11------|
----------12----------12----------|--12------------12----------12--|
----------------------------------|--------------------------------|
----------------------------------|--------------------------------|
----------------------------------|--------------------------------|


   E   E   E   E   E   E   E   E      Q     E   E   E   E   E   E   
--10----------10----------10------|--------10----------10----------|
------11----------11----------11--|------------11----------11------|
----------12----------12----------|--12------------12----------12--|
----------------------------------|--------------------------------|
----------------------------------|--------------------------------|
----------------------------------|--------------------------------|


   Q.      E  Q     Q        Q     E   E   E   E   E   E   
-------------------------|--------15----------15----------|
--13------13--L----13----|------------15----------15------|
-------------------------|--15------------15----------15--|
-------------------------|--------------------------------|
-------------------------|--------------------------------|
-------------------------|--------------------------------|


   E   E   E   E   E   E   E   E      Q     E   E   E   E   E   E   
--13----------15----------15------|--------13----------13----------|
------15----------15----------15--|------------13----------13------|
----------15----------15----------|--14------------14----------14--|
----------------------------------|--------------------------------|
----------------------------------|--------------------------------|
----------------------------------|--------------------------------|


   E   E   E   E   E   E   E   E      Q     E   E   E   E   E   E   
--15----------13----------13------|--------12----------12----------|
------13----------13----------13--|------------13----------13------|
----------14----------14----------|--12------------12----------12--|
----------------------------------|--------------------------------|
----------------------------------|--------------------------------|
----------------------------------|--------------------------------|


   E   E   E   E   E   E   E   E      E   E   E   E   E   E   E   E   
--12----------12----------12------|--12--12--12--12--12--12--12--12--|
------13----------13----------13--|----------------------------------|
----------12----------12----------|----------------------------------|
----------------------------------|----------------------------------|
----------------------------------|----------------------------------|
----------------------------------|----------------------------------|


                        Solo                                
   Q    H.              S    S S S S S S S S S S S S S S S  
--12-----------------|--5----5-5-5-5-5-5-5-5-5-5-5-5-5-5-5-|
---------------------|-------------------------------------|
---------------------|-------------------------------------|
---------------------|-------------------------------------|
---------------------|-------------------------------------|
---------------------|-------------------------------------|


                                     |--3--|  |--3--|               
  S S S S S S S S S S S S S S S S    E  E  E  E  E  E  E  E  E  E   
--5-5-5-5-5-5-5-5-5-5-5-5-5-5-5-5-|--5-----------------------------|
----------------------------------|-----8--5-----------------------|
----------------------------------|-----------7--5--------7--5-----|
----------------------------------|-----------------7--7--------7--|
----------------------------------|--------------------------------|
----------------------------------|--------------------------------|


  |---3---|                                                         
  E   E   E  E  E   H           S S S S S S S S S  S S S S  S S  S  
-----------------------------|-------------------------------------|
-----------------------------|-------------------------------------|
--4h--5p--4--L---------------|--2-2-2-2-2-2-2-2-5p-2-2-2-5p-2-4p-2-|
----------------7~--L--------|-------------------------------------|
-----------------------------|-------------------------------------|
-----------------------------|-------------------------------------|


  S  S S  S S S S  S S  S S S S  S S  S    S S S  S S  S S  S S S S  S E  E   
----------------------------------------|------------------------------------|
----------------------------------------|------------------------------------|
--4p-2-5p-2-2-2-4p-2-5p-2-2-2-4p-2-5p-2-|--2-2-4p-2-4p-2-5p-2-2-2-4p-2-4--4--|
----------------------------------------|------------------------------------|
----------------------------------------|------------------------------------|
----------------------------------------|------------------------------------|


  H.            E  E     S  S  S S  S  S S  S  S S  S  S S  S  S S   
----------------------|---------------------------------------------|
----------------------|---------------------------------------------|
--2~------------0--2--|--4p-2p-0-4p-2p-0-5p-2p-0-4p-2p-0-5p-2p-0-7h-|
----------------------|---------------------------------------------|
----------------------|---------------------------------------------|
----------------------|---------------------------------------------|


  S  S S  S  S S  S S S S S S S S S S    S S S S S S S S E  S S S S S S  
--------------------------------------|----------3-3-3-3-3--------3-3-3-|
--------------------------------------|--3-3-5-5------------3-4-5-------|
--5p-0-5p-2p-0-4p-2-0-5-5-4-4-4-4-5-5-|---------------------------------|
--------------------------------------|---------------------------------|
--------------------------------------|---------------------------------|
--------------------------------------|---------------------------------|


  E  S S S S S S S S S S S S S S    S S S S S S S S S S S S S S S S  
--3------------------------------|----------------------------------|
-----3-3-5-5-6-6-6-6-5-5-3-3-----|--3-3-3-3-3-3-3-3-3-3-3-3-3-3-3-3-|
-----------------------------5-5-|----------------------------------|
---------------------------------|----------------------------------|
---------------------------------|----------------------------------|
---------------------------------|----------------------------------|


  W                    E  E  E  E  E  S S S S  S  S  
--------------------|-------------------------------|
--3~----------------|-----5--3--0--5--3-0-0-5p-3p-0-|
--------------------|-------------------------------|
--------------------|-------------------------------|
--------------------|-------------------------------|
--------------------|-------------------------------|


  S  S  S S  S  S  S S  H            E  E   H.                W                 
----------------------------------|------------------------|-------------------|
--5p-3p-0-3h-5p-3p-0-3S-5~--------|--L-----10br------------|--L----------------|
----------------------------------|------------------------|-------------------|
----------------------------------|------------------------|-------------------|
----------------------------------|------------------------|-------------------|
----------------------------------|------------------------|-------------------|


   H          S  S  S S E   E     E  E  E  E  E   E  E  E   
-------------------------------|---------------------------|
--10~--------10-10p-8---8--10--|---------------------------|
----------------------9--------|--9--9--7--7--7S--5-----5--|
-------------------------------|---------------------7-----|
-------------------------------|---------------------------|
-------------------------------|---------------------------|


  E  S S E  E  E   E  E  E     W                   
----------------------5-----|---------------------|
-------------------5-----5--|--6b~----------------|
--7--5---5--7--7b-----------|---------------------|
-------7--------------------|---------------------|
----------------------------|---------------------|
----------------------------|---------------------|


  E    E    E    E    E    E    E    E     
------------------------------------------|
--8b~--8pb--8pb--8pb--8pb--8pb--8pb--8pb--|
------------------------------------------|
------------------------------------------|
------------------------------------------|
------------------------------------------|


                             |---3---|                                          
  E    E    E    E    Q      E   E   E      Q     S  S  S  S  Q     S  S  S  S  
------------------------------------12--|--17----12----------12----12----------|
--8pb--8pb--8pb--8pb--8b--------12------|-----------13----------------13-------|
----------------------------12----------|--------------14----------------14----|
----------------------------------------|-----------------14----------------14-|
----------------------------------------|--------------------------------------|
----------------------------------------|--------------------------------------|


   Q    H.                Q    H.             
-----------------------|---------------------|
--10-------------------|---------------------|
--------9br------------|--7----7b------------|
-----------------------|---------------------|
-----------------------|---------------------|
-----------------------|---------------------|


  Q    E    E    E   E  E    E       E    E    E    E    E    E    E    E     
----------------------------------|------------------------------------------|
----------------------------------|------------------------------------------|
--L----7pb--7pb--7b-----7pb--7pb--|--7pb--7pb--7pb--7pb--7pb--7pb--7pb--7pb--|
----------------------------------|------------------------------------------|
----------------------------------|------------------------------------------|
----------------------------------|------------------------------------------|


  E    E    E    E    E    E    E    E     
------------------------------------------|
------------------------------------------|
--7pb--7pb--7pb--7pb--7pb--7pb--7pb--7pb--|
------------------------------------------|
------------------------------------------|
------------------------------------------|


  E    E    E    E    E    E    E    E     
------------------------------------------|
------------------------------------------|
--7pb--7pb--7pb--7pb--7pb--7pb--7pb--7pb--|
------------------------------------------|
------------------------------------------|
------------------------------------------|


  E    E    E    E    E    E    E     E     Q     E  E  E  E  E  E   
-----------------------------------------|--------------------------|
-----------------------------------------|--------3-----3-----------|
--7pb--7pb--7pb--7pb--7pb--7pb--7pbr--7--|--7~-------4-----4--3--2--|
-----------------------------------------|--------------------------|
-----------------------------------------|--------------------------|
-----------------------------------------|--------------------------|


  E  E  Q    E  E  S  S E     E  S  S E  E  E  E  E  E   
---------------------------|----------------------------|
---------------------------|----------------------------|
--0--2--0-------0--2p-0----|--0--2p-0----0--------------|
-------------2----------2--|----------2-----2--1--0-----|
---------------------------|-------------------------2--|
---------------------------|----------------------------|


  E  E  Q    Q    Q        Q     E   E   E   E   E   E   
-----------------------|--------12----------12----------|
-----------------------|------------13----------13------|
-----------------------|--14------------14----------14--|
-----------------------|--------------------------------|
--1--0-----------------|--------------------------------|
--------3----2----0----|--------------------------------|


   E   E   E   E   E   E   E   E      Q     E   E   E   E   E   E   
--12----------12----------12------|--------12----------12----------|
------13----------13----------13--|------------13----------13------|
----------14----------14----------|--14------------14----------14--|
----------------------------------|--------------------------------|
----------------------------------|--------------------------------|
----------------------------------|--------------------------------|


   E   E   E   E   E   E   E   E      Q     E   E   E   E   E   E   
--10----------10----------10------|--------12----------12----------|
------12----------12----------12--|------------13----------13------|
----------12----------12----------|--14------------14----------14--|
----------------------------------|--------------------------------|
----------------------------------|--------------------------------|
----------------------------------|--------------------------------|


   E   E   E   E   E   E   E   E      Q     E   E   E   E   E   E   
--12----------12----------12------|--------12----------12----------|
------13----------13----------13--|------------13----------13------|
----------14----------14----------|--14------------14----------14--|
----------------------------------|--------------------------------|
----------------------------------|--------------------------------|
----------------------------------|--------------------------------|


   E   E   E   E   E   E   E   E      Q     E   E   E   E   E   E   
--10----------10----------10------|--------12----------12----------|
------12----------12----------12--|------------13----------13------|
----------12----------12----------|--14------------14----------14--|
----------------------------------|--------------------------------|
----------------------------------|--------------------------------|
----------------------------------|--------------------------------|


   E   E   E   E   E   E   E   E      Q     E   E   E   E   E   E   
--12----------12----------12------|--------12----------12----------|
------13----------13----------13--|------------13----------13------|
----------14----------14----------|--14------------14----------14--|
----------------------------------|--------------------------------|
----------------------------------|--------------------------------|
----------------------------------|--------------------------------|


   E   E   E   E   E   E   E   E      Q     E   E   E   E   E   E   
--10----------10----------10------|--------12----------12----------|
------12----------12----------12--|------------13----------13------|
----------12----------12----------|--14------------14----------14--|
----------------------------------|--------------------------------|
----------------------------------|--------------------------------|
----------------------------------|--------------------------------|


   E   E   E   E   E   E   E   E      Q     E   E   E   E   E   E   
--12----------12----------12------|--------12----------12----------|
------13----------13----------13--|------------13----------13------|
----------14----------14----------|--14------------14----------14--|
----------------------------------|--------------------------------|
----------------------------------|--------------------------------|
----------------------------------|--------------------------------|


   E   E   E   E   E   E   E   E     Q    E   E  E  E   E  E   
--10----------10----------10------|-------8---------8---------|
------12----------12----------12--|----------10--------10-----|
----------12----------12----------|--7-----------9---------9--|
----------------------------------|---------------------------|
----------------------------------|---------------------------|
----------------------------------|---------------------------|


  E   E  E  E   E  E  E   E     Q    E  E  E  E  E  E   
--8---------8---------8------|-------7--------7--------|
-----10--------10--------10--|----------8--------8-----|
---------9---------9---------|--7----------7--------7--|
-----------------------------|-------------------------|
-----------------------------|-------------------------|
-----------------------------|-------------------------|


  E  E  E  E  E  E  E  E     Q    E  E  E  E  E  E     E  E  E  E  E  E  E  E   
--8--------7--------7-----|-------5--------5--------|--5--------5--------5-----|
-----8--------8--------8--|----------8--------8-----|-----8--------8--------8--|
--------7--------7--------|--7----------7--------7--|--------7--------7--------|
--------------------------|-------------------------|--------------------------|
--------------------------|-------------------------|--------------------------|
--------------------------|-------------------------|--------------------------|


  Q    E  E  E  E  E  E     Q     H.            
-------5--------5--------|--5~-----------------|
----------7--------7-----|---------------------|
--7----------7--------7--|---------------------|
-------------------------|---------------------|
-------------------------|---------------------|
-------------------------|---------------------|


  Modulated Verses                                              
  Q                E  E  E  E  E  E     Q    E  E  E  E  E  E   
-------------------------------------|-------------------------|
-------------------------------------|-------------------------|
-------------------------------------|-------------------------|
-------------------------------------|-------------------------|
-------------------------------------|-------------------------|
--5----------------7--7--7--7--7--7--|--5----7--7--7--7--7--7--|


  Q    E  E  E  E  E  E     Q.     E  H           Q    E  E  E  E  E  E   
-------------------------|---------------------|-------------------------|
-------------------------|---------------------|-------------------------|
-------------------------|---------------------|-------------------------|
-------------------------|---------------------|-------------------------|
-------------------------|---------7--L--------|-------------------------|
--5----7--7--7--7--7--7--|--5------------------|--5----7--7--7--7--7--7--|


  Q    E  E  E  E  E  E     Q    E  E  E  E  E  E     Q.     E  H         
-------------------------|-------------------------|---------------------|
-------------------------|-------------------------|---------------------|
-------------------------|-------------------------|---------------------|
-------------------------|-------------------------|---------------------|
-------------------------|-------------------------|---------7--L--------|
--5----7--7--7--7--7--7--|--5----7--7--7--7--7--7--|--5------------------|


  W                   W                   H        H         
-------------------|-------------------|--------------------|
-------------------|-------------------|--------------------|
-------------------|-------------------|--------------------|
-------------------|-------------------|--------------------|
-------------------|-------------------|--5-----------------|
--5----------------|--L----------------|-----------5--------|


  H        E  E  E  E     H        E  E  E  E      H        E  E  E  E    
-----------------------|------------------------|------------------------|
-----------------------|------------------------|------------------------|
-----------------------|------------------------|------------------------|
-----------------------|------------------------|------------------------|
--5--------------------|------------------------|--------------------2~--|
--------------0--2--3--|--L--------L--2--3--5~--|--L--------L--3--5------|


                                  |--3--|  |--3--|                        
  H        Q    E.  S    H        E  E  E  E  E  E     H        H         
----------------------|-----------------------------|--------------------|
----------------------|-----------------------------|--------------------|
----------------------|-----------4--3--2-----------|-----------2--------|
----------------------|--------------------4--3--2--|--0-----------------|
--L--------2----L-----|-----------------------------|--------------------|
--------------------2-|--L--------------------------|--------------------|


  H         Q    Q       W                   H        E  E  E  E    
----------------------|-------------------|------------------------|
----------------------|-------------------|------------------------|
--7~------------------|-------------------|------------------------|
----------------------|-------------------|------------------------|
----------------------|-------------------|--2--------L--2--0------|
-----------------0----|--2----------------|--------------------3~--|


  H        E  E  E  E     H        E  E  E  E     H        E  E  E  E   
-----------------------|-----------------------|-----------------------|
-----------------------|-----------------------|-----------------------|
-----------------------|-----------------------|-----------------------|
-----------------------|-----------------------|-----------------------|
--------------------0--|--L--------L-----0--2--|--L--------L--1--2--4--|
--L--------L--2--3-----|--------------3--------|-----------------------|


  H        H            W                   E  E  E  E  E  E  E  E   
--------------------|--------------------|--------------------------|
--------------------|--------------------|--2--3--2-----2-----------|
--------------------|--------------------|-----------4-----4--2--0--|
-----------4--------|---L----------------|--------------------------|
--L-----------------|--------------------|--------------------------|
--------------------|--------------------|--------------------------|


                       Modulated Riff                                     
  Q    H.              H.             E  E     E  E  E  E  E  E  E    E   
--------------------|-----------------------|----------------------------|
--------------------|-----------------------|----------------------------|
--------------------|--------------------7--|--L--9-----7--L--------7g9--|
--4-----------------|--9-----------------7--|--L--9-----7--L--9-----7g9--|
--------------------|--9--------------------|-----------------9----------|
--------------------|-----------------7-----|--7-----------------7-------|


  H.           E  E     Q    E  E  H           H.           E  E   
---------------------|----------------------|---------------------|
---------------------|----------------------|---------------------|
--L---------------7--|--L-------------------|------------------7--|
--L---------------7--|--L-------7--L--------|--9---------------7--|
---------------------|----------7--L--------|--9------------------|
---------------------|-------5--------------|---------------7-----|


  E  E  E  E  E  E  E  E     H.           E  E     Q.     E   H         
--------------------------|---------------------|----------------------|
--------------------------|---------------------|----------------------|
--L--9-----7--L--------7--|--L------------------|---------7S--9--------|
--L--9-----7--L--7-----7--|--L---------------7--|--L------7S--9--------|
-----------------7--------|------------------7--|--L-------------------|
--7-----------------7-----|---------------------|----------------------|


  H.           E  E     E  E  E  E  E  E  E    E     H.           E  E   
---------------------|----------------------------|---------------------|
---------------------|----------------------------|---------------------|
------------------7--|--L--9-----7--L--------7g9--|--L---------------7--|
--9---------------7--|--L--9-----7--L--9-----7g9--|--L---------------7--|
--9------------------|-----------------9----------|---------------------|
---------------7-----|--7-----------------7-------|---------------------|


  Q    E  E  H           H.           E  E     E  E  E  E  E  E  E    E   
----------------------|---------------------|----------------------------|
----------------------|---------------------|----------------------------|
--L-------------------|------------------7--|-----9-----7--L--------5g7--|
--L-------7--L--------|--9---------------7--|-----9-----7--L--9-----5g7--|
----------7--L--------|--9------------------|-----------------9----------|
-------5--------------|---------------7-----|--7-----------------7-------|


  Q.     Q.     Q       Q.     Q.     Q       Q.     Q.     Q     
---------------------|---------------------|---------------------|
---------------------|---------------------|---------------------|
---------------------|---------------------|---------------------|
--7------------------|---------------------|--7------------------|
--5------7-----------|--5------4-----------|--5------7-----------|
---------5-----------|--3------2-----------|---------5-----------|


  Q.     Q.     Q       H.           E  E     E  E  E  E  E  E  E    E   
---------------------|---------------------|----------------------------|
---------------------|---------------------|----------------------------|
---------------------|------------------7--|--L--9-----7--L--------7g9--|
---------------------|--9---------------7--|--L--9-----7--L--9-----7g9--|
--5------4-----------|--9------------------|-----------------9----------|
--3------2-----------|---------------------|--7-------------------------|


  H.           E  E     Q    E  E  H           H.           E  E   
---------------------|----------------------|---------------------|
---------------------|----------------------|---------------------|
--L---------------7--|--L-------------------|------------------7--|
--L---------------7--|--L-------7--L--------|--9---------------7--|
---------------------|----------7--L--------|--9------------------|
---------------------|----------------------|---------------------|


  E  E  E  E  E  E  E  E     W                   Q.     E   H         
--------------------------|-------------------|----------------------|
--------------------------|-------------------|----------------------|
--L--9-----7--L--------7--|--L----------------|---------7S--9--------|
--L--9-----7--L--7-----7--|--L----------------|--7------7S--9--------|
-----------------7--------|-------------------|--7-------------------|
--7-----------------7-----|-------------------|----------------------|


  H.           E  E     E  E  E  E  E  E  E    E     H.           E  E   
---------------------|----------------------------|---------------------|
---------------------|----------------------------|---------------------|
------------------7--|--L--9-----7--L--------7g9--|--L---------------7--|
--9---------------7--|--L--9-----7--L--9-----7g9--|--L---------------7--|
--9------------------|-----------------9----------|---------------------|
---------------7-----|--7-------------------------|---------------------|


  Q    E  E  H           H.           E  E     E  E  E  E  E  E  E  E   
----------------------|---------------------|--------------------------|
----------------------|---------------------|--------------------------|
--L-------------------|------------------7--|-----9-----7--L-----------|
--L-------7--L--------|--9---------------7--|-----9-----7--L--9--------|
----------7--L--------|--9------------------|-----------------9--------|
----------------------|---------------------|--7-----------------7-----|


  Outro                                                           
  Q.     Q.     Q       Q.     Q.     Q       Q.     Q.     Q     
---------------------|---------------------|---------------------|
---------------------|---------------------|---------------------|
---------------------|---------------------|---------------------|
--7------------------|---------------------|--7------------------|
--5------7-----------|--5------4-----------|--5------7-----------|
---------5-----------|--3------2-----------|---------5-----------|


  Q.     Q.     Q       Q.     Q.     Q       Q.     Q.     Q     
---------------------|---------------------|---------------------|
---------------------|---------------------|---------------------|
---------------------|--7------------------|---------------------|
---------------------|--7------7-----------|--5------4-----------|
--5------4-----------|--5------7-----------|--5------5-----------|
--3------2-----------|---------5-----------|--3------2-----------|


  Q.     Q.     Q       Q.     E  H.           E  E     W                 
---------------------|-------------------------------|-------------------|
---------------------|-------------------------------|-------------------|
--7------------------|-------------------------------|-------------------|
--7------7-----------|--5------L--4------------L--L--|-------------------|
--5------7-----------|--5------L--4------------L--L--|-------------------|
---------5-----------|--3------L--2------------L--L--|-------------------|


  W                   W                   E  E  E  E  E  E  E  E  E  E  E  E   
-------------------|-------------------|--------------------------------------|
-------------------|-------------------|--------------------------------------|
-------------------|-------------------|--------------------------------------|
-------------------|-------------------|--------------------0-----------------|
-------------------|-------------------|--0--2--2--2--2--2-----2--2--2--2--2--|
-------------------|-------------------|--------------------------------------|


  E  E  E  E  E  E  E  E  E  E  E  E     E  E  E  E  E  E  E  E  E  E  E  E   
--------------------------------------|--------------------------------------|
--------------------------------------|--------------------------------------|
--------------------------------------|--------------------------------------|
--------------------0-----------------|--------------------0-----------------|
--0--2--2--2--2--2-----2--2--2--2--2--|--0--2--2--2--2--2-----2--2--2--2--2--|
--------------------------------------|--------------------------------------|


  E  E  E  E  E  E  E  E  E  E  E  E     Q.     Q.      H.             
--------------------------------------|------------------------------||
--------------------------------------|------------------------------||
--------------------------------------|------------------------------||
--------------------0-----------------|------------------------------||
--0--2--2--2--2--2-----2--2--2--2--2--|--2------2S-------------------||
--------------------------------------|------------------------------||




Duration Legend
---------------
W - whole
H - half
Q - quarter
E - 8th
S - 16th
T - 32nd
X - 64th
. - note dotted
|-n-|  - n-tuplets


Tablature Legend
----------------
L - tied note
x - dead note
g - grace note
(n) - ghost note
> - accentuded note
NH - natural harmonic
AH - artificial harmonic
TH - tapped harmonic
SH - semi harmonic
PH - pitch harmonic
h - hammer on
p - pull off
b - bend
br - bendRelease
pb - preBend
pbr - preBendRelease
brb - bendReleaseBend
\n/ - tremolo bar dip
\n - tremolo bar dive
-/n - tremolo bar Release up
/n\ - tremolo bar inverted dip
/n - tremolo bar return
-\n - tremolo bar Release down
S - shift slide
s - legato slide
/ -  slide into from below or out of upwards
\ -  slide into from above or out of downwards
~ - vibrato
W - wide vibrato
tr - trill
TP - tremolo picking
T - tapping
S - slap
P - pop
< - fade in
^ - brush up
v - brush down





Comments


Popular Rainbow tabs & chords
All Night Long Bass Tabs
Maybe Next Time Bass Tabs
Since Youve Been Gone 2 Bass Tabs
Street Of Dreams Bass Tabs
Eyes Of The World Chords
16th Century Greensleeves Tabs
Freedom Fighter Tabs
Long Live Rock'n'Roll Tabs
Southborder Tabs
Star Gazer Tabs


Song lyrics



↑ Back to top | Tablatures and chords are parodies/interpretations of the original songs. You may use it for private study, scholarship, research or language learning purposes only
© 2014 AZChords.com Contact us | Privacy policy | DMCA | Add/correct tabs | Request tabs | Top 50 tabs