» » »

Kill The King Tabs (ver.1)

Artists:  A B C D E F G H I J K L M N O P Q R S T U V W X Y Z # 

Kill The King Tabs (ver.1)

Rainbow
Rating:
4/5 (3 votes)

Hard to play? Try these video lessons and learn fast.
                 -RAINBOW-
KILL THE KING

--------------------------------------|-------------------------------------|
--------------------------------------|-------------------------------------|
---15p12p0-15p12p0-15p12p0-15p12p0-15-|-14----------------------------------|
--------------------------------------|-------------------------------------|
--------------------------------------|-------------------------------------|
--------------------------------------|-------------------------------------|
   4 times                             4th time
(play entire sequence twice)

----------------------------------------------------------------------------|
----------------------------------------------------------------------------|
------3-5-3x---3/5---5--3----------3-5-3x---3---3----3/5--------------------|
--5---3-5-3x-3-3/5---5--3-3-3--5---3-5-3x-3-3---3-3--3/5--------------------|
--5---1-3-1x-3-1/3---3--1-3-3--5---1-3-1x-3-1---1-3--1/3--------------------|
--3----------1------------1-1--3----------1-------1-------------------------|

----------------------------------------------------------------------------|
----------------------------------------------------------------------------|
------------------------------3/5-------------------------------------------|
-55555555-55555555-55555555-3-3/5-------------------------------------------|
-55555555-55555555-55555555-3-1/3-------------------------------------------|
-33333333-33333333-33333333-1-----------------------------------------------|
 "Danger . . .


----------------------------------------------------------------------------|
----------------------------------------------------------------------------|
-------------555555-5-------------------------------------------------------|
--3333333333-555555-5-------------------------------------------------------|
--3333333333-333333-3-3-5-6---5-6-8---6-8-10--------10p8--------------------|
--1111111111---------------------------------------------10\----------------|
 "Oh no . .


----------------------------------------------------------------------------|
------3---------------------------------------------------------------------|
------3---------------------------------------------------------------------|
----------------7---5-------------------------------------------------------|
----------------7---5---6-5-6---8-6-8--10-9-10--12-11-12--------------------|
--3-------------5---3-------------------------------------------------------|
 "Fly like the wind . .


----------------------------------------------------------------------------|
----------------------------------------------------------------------------|
----------------------------------------------------------------------------|
----------------------------------------------------------------------------|
-12-13-12-10-12-10----------------------------------------------------------|
-------------------13-12-10-------------------------------------------------|
   fast fill at end    ?  ?    back to intro


move into solo


----------------------------------------------------------------------------|
----------------------------------------------------------------------------|
----------------------------------------------------------------------------|
--999999-9999999-9999999----------------------------------------------------|
--999999-9999999-9999999-----7b---------------------------------------------|
--777777-7777777-7777777--5-------------------------------------------------|
 verses after solo


----------------------------------------------------------------------------|
----------------------------------------------------------------------------|
----------------99--9-------------------------------------------------------|
--777777-77777--99--9-------------------------------------------------------|
--777777-77777--77--7--7-9-10---9-10-12--10-12-14-----14p12-----------------|
--555555-55555----------------------------------------------14\-------------|

----------------------------------------------------------------------------|
-----7----------------------------------------------------------------------|
-----7----------------------------------------------------------------------|
-------------11--9----------------------------------------------------------|
-------------11--9---10-9-10---12-10-12---14-13-14--16-15-16----------------|
--7----------9---7----------------------------------------------------------|

----------------------------------------------------------------------------|
----------------------------------------------------------------------------|
----------------------------------------------------------------------------|
----------------------------------------------------------------------------|
--16-17-16-14-16-14---------------------------------------------------------|
--------------------17-16-14------------------------------------------------|
 fast fill again


----------------------------------------------------------------------------|
----------------------------------------------------------------------------|
-------7-9-7x---7/9--9--7--------7-9-7x---7---7----7/9----------------------|
--9----7-9-7x-7-7/9--9--7-7---9--7-9-7x-7-7---7--7-7/9----------------------|
--9----5-7-5x-7-5/7--7--5-7---9--5-7-5x-7-5---5--7-5/7----------------------|
--7-----------5-----------5---7---------5--------5--------------------------|

----------------------------------------------------------------------------|
----------------------------------------------------------------------------|
-7------------7-------------------------------------------------------------|
-7------------7-------------------------------------------------------------|
-5------------5-------------------------------------------------------------|
---5---3--2-----5---3--2----------------------------------------------------|
 mixed in at ending


----------------------------------------------------------------------------|
----------------------------------------------------------------------------|
----------------------------------------------------------------------------|
--------------------------9--9----------------------------------------------|
------5---------5---------9--9----------------------------------------------|
--7-7---7-7-7-7---7-7-7---7--7----------------------------------------------|
            
Hard to play? Try these video lessons and learn fast. | Correct




comments powered by Disqus
↑ Back to top | Tablatures and chords are parodies/interpretations of the original songs. You may use it for private study, scholarship, research or language learning purposes only