>
 >
Jealous Lover

Jealous Lover Guitar Tabs

Rainbow - Jealous Lover chords, tabs, tablatures, lyrics

Guitar lessons | Add/correct | Request | Top 50 tabs Artists:  A B C D E F G H I J K L M N O P Q R S T U V W X Y Z 0-9

Jealous Lover Guitar Tabs – Rainbow

CD, Sheet music, Poster

Do you like Jealous Lover? Share with your friends now
TabsTabs v2
                                  JEALOUS LOVER
                             As recorded by Rainbow
                         (Released as a Single in 2003)

Words by Joe Lynn turner

Music by Ritchie Blackmore and Joe Lynn turner
Arranged by Ritchie Blackmore and Joe Lynn turner


Gtr I (E A D G B E) - 'Ritchie Blackmore'
Gtr II (E A D G B E) - 'David Rosenthal Synth'
Gtr III (E A D G B E) - 'David Rosenthal Organ'

               Intro/Refrain
 
            $
  N.C.          (F#m)

  Gtr I
|-----------||-------------------------------------|
|-----------||o------------------------------------|
|-----------||-------------------------------------|
|-------4-4-||--------2----2h4-(4)-(4)-2-----------|
|-----------||o-0h2h4----x---------------4-2p0-----|
|-----------||---------------------------------2-0-|


|------------------------------||
|-----------------------------o||
|------------------------------||
|-------2----2h4-(4)-(4)-2-4---||
|-0h2h4----x------------------o||
|------------------------------||


 1st and 2nd Verse
  (F#5)
|----------------------|----------------------|
|----------------------|----------------------|
|----------------------|----------------------|
|-----4-----4----------|-----4-----4----------|
|---4-----4------------|---4-----4------------|
|-2-----2-----2-(2)----|-2-----2-----2-(2)----|


  (E5)                   (F#5)
|----------------------|-----------------------|
|----------------------|-----------------------|
|----------------------|-----------------------|
|-----2-----2----------|-----4-----4-----------|
|---2-----2------------|---4-----4-------------|
|-0-----0-----0-(0)----|-2-----2-----2-(2)-----|


  (F#m)                   (F#m7)
|-----------------------|-------------------------|
|-----------------------|-------------------------|
|-----------------------|-------------------------|
|------4-----4----------|--------4-----4----------|
|----4-----4------------|------4-----4------------|
|--2-----2-----2-(2)----|---2------2-----2-(2)----|
|
| Gtr II
|-14--------------------|-(14)--------------------|
|-----------------------|--17---------------------|
|-11--------------------|-(11)--------------------|
|-----------------------|-------------------------|
|-----------------------|-------------------------|
|-----------------------|-------------------------|


                                                   To Coda
  (E5)          (B5)             (F#m)
|------------------------------|----------------------------|
|------------------------------|----------------------------|
|---------------------4-----4--|----------------------------|
|------2-----2------4-----4----|----4----4p=2---4-4---4p2---|
|----2-----2-----2------2------|--------------4-----4-------|
|--0-----0---------------------|-2--------------------------|
|
|-12---------------------------|------9-(9)-----------------|
|---------------12-------------|-7--------------------------|
|------------------------------|------6-(6)-----------------|
|--9------------(9)------------|-4--------------------------|
|------------------------------|----------------------------|
|------------------------------|----------------------------|


 1st Refrain
  D      E          D        E       (F#m)
|-----------------|----------------|------------------------------------|
|-----------------|------7---------|------------------------------------|
|-----------------|------7---------|------------------------------------|
|--0--0-------2---|--0--(0)--------|-------2----2h4-(4)-(4)-2-----------|
|-----------------|----------------|-0h2h4----x---------------4-2p0-----|
|---------0--(0)--|-----------0----|--------------------------------2-0-|
|
| Gtr III
|-----------------|----------------|--------------9-----(9)-------------|
|-10-----12-------|-10-------12----|--------------7-----(7)-------------|
|-11-----13-------|-11-------13----|------------------------------------|
|-12-----14-------|-12-------14----|-------2------4-----(4)-2-----------|
|-----------------|----------------|-0h2h4--------------------4-2p0-----|
|-----------------|----------------|--------------------------------2-0-|


|--------------------------------------|
|--------------------------------------|
|--------------------------------------|
|-------2----2h4-(4)-(4)-2-------------|
|-0h2h4----x---------------4-2p0-------|
|--------------------------------2-0---|
|
|--------------9-----(9)---------------|
|--------------7-----(7)---------------|
|--------------------------------------|
|-------2------4-----(4)-2-------------|
|-0h2h4--------------------4-2p0-------|
|--------------------------------2-0---|


                          D.S. al Coda
  D     E       D        E
|-------------|------------------------||
|-------------|------------------------||
|-------------|--7--------9-(9)\-------||
|-------------|--7-7-7-7--9-(9)\-------||
|--5-----7----|--5-5-5-5--7-(7)\-------||
|--5-----7----|------------------------||
|
|-------------|------------------------||
|-10----12----|-10-------12------(12)--||
|-11----13----|-11-------13------(13)--||
|-12----14----|-12-------14------(14)--||
|-------------|------------------------||
|-------------|------------------------||


 2nd Refrain
  &
  D      E          D          E       (F#m)
|-----------------|------------------|------------------------------------|
|-----------------|------------------|------------------------------------|
|-----------------|--2-2-2--2--------|------------------------------------|
|--0--0-------2---|--0-0-0-(0)-------|-------2----2h4-(4)-(4)-2-----------|
|-----------------|------------------|-0h2h4----x---------------4-2p0-----|
|---------0--(0)--|-------------0----|--------------------------------2-0-|
|
|-----------------|------------------|--------------9-----(9)-------------|
|-10-----12-------|-10---------12----|--------------7-----(7)-------------|
|-11-----13-------|-11---------13----|------------------------------------|
|-12-----14-------|-12---------14----|-------2------4-----(4)-2-----------|
|-----------------|------------------|-0h2h4--------------------4-2p0-----|
|-----------------|------------------|--------------------------------2-0-|


|--------------------------------------|
|--------------------------------------|
|--------------------------------------|
|-------2----2h4-(4)-(4)-2-------------|
|-0h2h4----x---------------4-2p0-------|
|--------------------------------2-0---|
|
|--------------9-----(9)---------------|
|--------------7-----(7)---------------|
|--------------------------------------|
|-------2------4-----(4)-2-------------|
|-0h2h4--------------------4-2p0-------|
|--------------------------------2-0---|


  D              E       D        E
|----------------------|------------------------||
|----------------------|------------------------||
|----------------------|-----------9-(9)\-------||
|----------------------|----7-7-7--9-(9)\-------||
|--5p4h5p4h5p4h5--7----|--5-5-5-5--7-(7)\-------||
|----------------------|------------------------||
|
|----------------------|------------------------||
|-10-------------12----|-10-------12------(12)--||
|-11-------------13----|-11-------13------(13)--||
|-12-------------14----|-12-------14------(14)--||
|----------------------|------------------------||
|----------------------|------------------------||


 Guitar Solo
  C#m7                             A
                         ~~~~~~~~
|--------------------------------|---------------------------------------------|
|-12b14--12b14--12b14--(12)pb14--|-12b14-12-10-12b14-12-10-12b14--12pb14-12b14-|
|--------------------------------|---------------------------------------------|
|--------------------------------|---------------------------------------------|
|--------------------------------|---------------------------------------------|
|--------------------------------|---------------------------------------------|
|
| Gtr II
|--------------------------------|---------------------------------------------|
|--------------------------------|--5------------------------------------------|
|--6-----------------------------|--6------------------------------------------|
|--6-----------------------------|--7------------------------------------------|
|--------------------------------|---------------------------------------------|
|--------------------------------|---------------------------------------------|


  F#m                 E F#m
                    ~~~~~~~~~            ~~~~~~~~~
|------------------------------------------|---------0-----------------------|
|-(12)-12r10----10-------------------10----|-----------7-5---5---------------|
|------------11----11---(11)-9-10-11----11-|-(11)-11-------6---6p5S4-2-4-2-4-|
|------------------------------------------|---------------------------------|
|------------------------------------------|---------------------------------|
|------------------------------------------|---------------------------------|
|
|------------------------------------------|---------------------------------|
|---7------------------------------7-------|---------------------------------|
|---6-----------------4---5--------6-------|---6-----------------------------|
|---7-----------------6---7--------7-------|---7-----------------------------|
|---------------------7---9----------------|---9-----------------------------|
|------------------------------------------|---------------------------------|


  C#m7                     A
               ~~~
|------------------------|---------------------------------|
|------------2-----------|---------------------------------|
|--4b6--4pb6---4b6---6-6-|-6S4-4-4-4S6-6-6-6S4-4-4-4S6-6-6-|
|------------------------|---------------------------------|
|------------------------|---------------------------------|
|------------------------|---------------------------------|
|
|------------------------|---------------------------------|
|------------------------|---------------------------------|
|------------------------|-6-------------------------------|
|-11---------------------|-7-------------------------------|
|------------------------|---------------------------------|
|--9---------------------|-5-------------------------------|


  F#m         E   F#m
|---------------------------------|-------------------------2-------|
|---------------------------------|----------------------2-(2)-5b7--|
|-6---6-6-6p4-4-4-4p2-2-2-2S1-2p1-|-1tr2---------------2------------|
|---------------------------------|------------/4--(4)--------------|
|---------------------------------|---------------------------------|
|---------------------------------|---------------------------------|
|
|---------------------------------|---------------------------------|
|---------------------------------|-----------------2---------------|
|---4-6-4---4-6-4---4-2-1---4-2-1-|------4-2-1------2---------------|
|-4-------4-------4-------4-------|-4-----------4-------------------|
|---------------------------------|---------------------------------|
|---------------------------------|---------------------------------|


  C#m7                                    A
|--5b7==5-5-5-5-5-5-5-5-5r5-5-5-5p4-4-4-|-4-5-4-4h5-4-2p0---------0---|
|---------------------------------------|-----------------7S5-5b7-----|
|---------------------------------------|-----------------------------|
|---------------------------------------|-----------------------------|
|---------------------------------------|-----------------------------|
|---------------------------------------|-----------------------------|
|
|---------------------------------------|-----------------------------|
|-14------------------------------------|-----------------------------|
|---------------------------------------|-----------------------------|
|-11------------------------------------|-7---------------------------|
|---------------------------------------|-----------------------------|
|---------------------------------------|-5---------------------------|


  B5
                                                            \2
|----------------------------------|------------------------------||
|------5---------5-----5-----5-5-3-|-2----3-2---------------------||
|--4b6---4b6-(4)---4b6---4b6-------|----------4----2-2b4===(2)----||
|----------------------------------|------------------------------||
|----------------------------------|------------------------------||
|----------------------------------|------------------------------||
|
|                                    \1.5     \1.5   \1.5   \2.5
|----------------------------------|----------2-------------7-----||
|-12-------------------------------|-0---------------0------------||
|----------------------------------|------------------------------||
|--9-------------------------------|------------------------------||
|----------------------------------|------------------------------||
|--7-------------------------------|------------------------------||


 3rd Verse
  (F#5)
|----------------------|----------------------|
|----------------------|----------------------|
|----------------------|----------------------|
|-----4-----4----------|-----4-----4----------|
|---4-----4------------|---4-----4------------|
|-2-----2-----2-(2)----|-2-----2-----2-(2)----|


  (E5)                   (F#5)
|----------------------|-----------------------|
|----------------------|-----------------------|
|----------------------|-----------------------|
|-----2-----2----------|-----4-----4-----------|
|---2-----2------------|---4-----4-------------|
|-0-----0-----0-(0)----|-2-----2-----2-(2)-----|


  (F#5)                   (F#m7)
|-----------------------|------------------------|
|-----------------------|------------------------|
|-----------------------|------------------------|
|-----4-----4-----------|-------4-----4----------|
|---4-----4-------------|-----4-----4------------|
|-2-----2-----2-(2)\----|--2------2-----2-(2)----|
|
| Gtr II
|-----------------------|-12---------------------|
|-7---------------------|-(7)--------------------|
|-----------------------|------------------------|
|-4---------------------|-(4)--------------------|
|-----------------------|------------------------|
|-----------------------|------------------------|


  (E5)         (B5)             (F#m)
|-----------------------------|--------------------------|
|-----------------------------|--------------------------|
|--------------------4-----4--|--------------------------|
|-----2-----2------4-----4----|-----4--4p2---4-4---4p2---|
|---2-----2-----2------2------|------------4-----4-------|
|-0-----0---------------------|--2-----------------------|
|
|-7---------------------------|--------------------------|
|---------------7-------------|-14-----------------------|
|-4------------(4)------------|-11-----------------------|
|-----------------------------|--------------------------|
|-----------------------------|--9-----------------------|
|-----------------------------|--------------------------|


 3rd Refrain
  D      E       D           E
|--------------|-----------------------|
|--------------|-----------------------|
|--------------|-----------------------|
|--0--0---2----|--------------9---(9)\-|
|--------------|-/5-/5-/5-/5--7---(7)\-|
|---------0----|-----------------------|
|
| Gtr III
|--------------|-----------------------|
|-10-----12----|-10----------12--------|
|-11-----13----|-11----------13--------|
|-12-----14----|-12----------14--------|
|--------------|-----------------------|
|--------------|-----------------------|


  (F#m)
|------------------------------------|--------------------------------------|
|------------------------------------|--------------------------------------|
|------------------------------------|--------------------------------------|
|-------2----2h4-(4)-(4)-2-----------|-------2----2h4-(4)-(4)-2-------------|
|-0h2h4----x---------------4-2p0-----|-0h2h4----x---------------4-2p0-------|
|--------------------------------2-0-|--------------------------------2-0---|
|
|--------------9-----(9)-------------|--------------9-----(9)---------------|
|--------------7-----(7)-------------|--------------7-----(7)---------------|
|------------------------------------|--------------------------------------|
|-------2------4-----(4)-2-----------|-------2------4-----(4)-2-------------|
|-0h2h4--------------------4-2p0-----|-0h2h4--------------------4-2p0-------|
|--------------------------------2-0-|--------------------------------2-0---|


  D     E       D        E
|-------------|-----------------|
|-------------|-----------------|
|-------------|-----------------|
|--0----------|--7-6-7-7--9-----|
|-------/7----|--5-4-5-5--7\----|
|-------------|-----------------|
|
|-------------|-----------------|
|-10----12----|-10-------12-----|
|-11----13----|-11-------13-----|
|-12----14----|-12-------14-----|
|-------------|-----------------|
|-------------|-----------------|


    (F#m)
||-------------------------------------|-------------------------------||
||o------------------------------------|------------------------------o||
||-------------------------------------|-------------------------------||
||--------2----2h4-(4)-(4)-2-----------|-------2----2h4-(4)-(4)-2-4----||
||o-0h2h4----x---------------4-2p0-----|-0h2h4----x-------------------o||
||---------------------------------2-0-|-------------------------------||
|
||-------------------------------------|-------------------------------||
||o------------------------------------|------------------------------o||
||-------------------------------------|-------------------------------||
||--------2------4-----(4)-2-----------|-------2------4-----(4)-2-4----||
||o-0h2h4--------------------4-2p0-----|-0h2h4------------------------o||
||---------------------------------2-0-|-------------------------------||


 Tag
  (F#m)
|-------------------------------------|-------------------------------|
|-------------------------------------|-------------------------------|
|-------------------------------------|-------------------------------|
|--------2----2h4-(4)-(4)-2-----------|--------2----2h4-(4)-(4)-2-4---|
|--0h2h4----x---------------4-2p0-----|--0h2h4----x-------------------|
|---------------------------------2-0-|-------------------------------|
|
| Gtr II
|-14----------------------------------|-12----------------------------|
|-------------------------------------|-------------------------------|
|-------------------------------------|-11----------------------------|
|-------------------------------------|-------------------------------|
|-------------------------------------|-------------------------------|
|-------------------------------------|-------------------------------|


  (F#m)                                 F#m
|-------------------------------------|-------------------------------|
|-------------------------------------|-------------------------------|
|-------------------------------------|-------------------------------|
|--------2----2h4-(4)-(4)-2-----------|--------2----2h4-(4)-(4)-2-4---|
|--0h2h4----x---------------4-2p0-----|--0h2h4----x-------------------|
|---------------------------------2-0-|-------------------------------|
|
|-------------------------------------|-------------------------------|
|-14----------------------------------|-10----------------------------|
|-11----------------------------------|-------------------------------|
|-------------------------------------|-11----------------------------|
|-------------------------------------|-------------------------------|
|-------------------------------------|-------------------------------|


  F#m                       F#m7
|--------------------------------------------------|
|--------------------------------------------------|
|--------------------------------------------------|
|----------14----14h16-(16)-(16)-14----------14h16-|
|-12h14h16-----x--------------------16-14h16-------|
|--------------------------------------------------|
|
|-----------------------------5--------------------|
|--7--------------------------5--------------------|
|-----------------------------6--------------------|
|--4--------------------------4--------------------|
|--------------------------------------------------|
|--------------------------------------------------|


  F#m
|-----------------------------------------|
|-----------------------------------------|
|--------------------------------14-------|
|----------14----14h16-(16)-(16)-14-------|
|-12h14h16-----x--------------------16s=2-|
|-----------------------------------16s=2-|
|
|--9--------------------------------------|
|--7--------------------------------------|
|-----------------------------------------|
|--4--------------------------------------|
|-----------------------------------------|
|-----------------------------------------|


  F#m
|------------------------------------|------------------------------|
|------------------------------------|------------------------------|
|------------------------------------|------------------------------|
|-------2----2h4-(4)-(4)-2-----------|-------2----2h4-(4)-(4)-2-4---|
|-0h2h4----x---------------4-2p0-----|-0h2h4----x-------------------|
|--------------------------------2-0-|------------------------------|
|
|-5----------------------------------|-9----------------------------|
|------------------------------------|-7----------------------------|
|-6----------------------------------|------------------------------|
|------------------------------------|-4----------------------------|
|------------------------------------|------------------------------|
|------------------------------------|------------------------------|


  (F#m)
|--------------------------------------------------|
|--------------------------------------------------|
|--------------------------------------------------|
|----------14----14h16-(16)-(16)-14----14h16-14h16-|
|-12h14h16-----x--------------------16-------------|
|--------------------------------------------------|
|
| Gtr III
|--------------------------------------------------|
|-------------------14------(14)-------------------|
|----------16-------14------(14)-------------------|
|-14-16-18-14-------16------(16)-------------------|
|-12h14h16-----------------------------------------|
|--------------------------------------------------|


|-------------------------------------------|
|-------------------------------------------|
|--------------------------------------14\--|
|----------14----14h16-(16)-(16)-14----14\--|
|-12h14h16-----x----------------------------|
|-------------------------------------------|
|
|-------------------------------------------|
|-------------------14------(14)------------|
|----------16-------14------(14)-18p16h18---|
|-14-16-18-14-------16------(16)-16p14h16---|
|-12h14h16----------------------------------|
|-------------------------------------------|


  (F#m)
|----------------------------------------------|
|----------------------------------------------|
|----------------------------------------------|
|-----------2----2h=4-(4)--(4)--2--------------|
|--0h=2h=4-----x------------------4---2p=0-----|
|------------------------------------------2-0-|
|
|                              Gtr II
|----------------------------------------------|
|------------------14-----(14)-----------------|
|----------16------14-----(14)-11---(11)-------|
|-14h16h18-14------16-----(16)-----------------|
|-12h14h16-------------------------------------|
|----------------------------------------------|


                               E5 F#5
|------------------------------------------*|
|------------------------------------------*|
|------------------------------------------*|
|-----------2----2h=4-(4)--(4)--2--4-(4)\--*|
|--0h=2h=4-----x---------------------------*|
|------------------------------------------*|
|
| Gtr III
|------------------------------------------*|
|------------------14-----(14)-------------*|
|----------16------14-----(14)-16-18-------*|
|-14h16h18-14------16-----(16)-14-16-------*|
|-12h14h16---------------------------------*|
|------------------------------------------*|


Tablature Legend
----------------
 h   - hammer-on
 p   - pull-off
 b   - bend
 pb  - pre-bend
 r   - bend release (if no number after the r, then release immediately)
 /\  - slide into or out of (from/to "nowhere")
 s   - legato slide
 S   - shift slide
  - natural harmonic
[n]  - artificial harmonic
n(n) - tapped harmonic
 ~   - vibrato
 tr  - trill
 T   - tap
 TP  - trem. picking
 PM  - palm muting
\n/  - tremolo bar dip; n = amount to dip
 \n  - tremolo bar down
 n/  - tremolo bar up
/n\  - tremolo bar inverted dip
 =   - hold bend; also acts as connecting device for hammers/pulls
 <>  - volume swell (louder/softer)
 x   - on rhythm slash represents muted slash
 o   - on rhythm slash represents single note slash

Misc Legend
-----------
 |  - bar
||  - double bar
||o - repeat start
o|| - repeat end
*|  - double bar (ending)
 :  - bar (freetime)
 $  - Segno
 &  - Coda





Comments


Popular Rainbow tabs & chords
Maybe Next Time Bass Tabs
Since Youve Been Gone 2 Bass Tabs
Eyes Of The World Chords
Catch The Rainbow Tabs
Kill The King (Intro) Tabs
La Connection Intro Tabs
La Connection Intro 1 Tabs
Rainbow Eyes Tabs
Since Youve Been Gone (Solo Ver 2) Tabs
Still I'm Sad Tabs


Song lyrics



↑ Back to top | Tablatures and chords are parodies/interpretations of the original songs. You may use it for private study, scholarship, research or language learning purposes only
© 2014 AZChords.com Contact us | Privacy policy | DMCA | Add/correct tabs | Request tabs | Top 50 tabs