>
 >
Black Masquerade 1

Black Masquerade 1 Guitar Tabs

Rainbow - Black Masquerade 1 chords, tabs, tablatures, lyrics

Guitar lessons | Add/correct | Request | Top 50 tabs Artists:  A B C D E F G H I J K L M N O P Q R S T U V W X Y Z 0-9

Black Masquerade 1 Guitar Tabs – Rainbow

CD, Sheet music, Poster

Do you like Black Masquerade 1? Share with your friends now
ChordsTabsTabs v2Ukulele
                            Black Masquerade
                                Rainbow
                            Stranger In Us All

Intro
e-------------------------------------|
b----5---6--3---5----5---6--3---5-----|
g----5---7--4---5----5---7--4---5-----|
d-------------------------------------|
a-------------------------------------|
e-------------------------------------|


e-------------------------------------------12-13-16-17-19-------------|
b---------------------------------12--13-15----------------17-15-13-14-|
g----------------------------13-14-------------------------------------|
d-------------------12-14-15-------------------------------------------|
a----12-14-15-14-15----------------------------------------------------|
e----------------------------------------------------------------------|

e---------------------------------------|
b---------------------------------------|
g---------7---9-10-9-7-------------7--4-|
d--7-9-10--------------10-7-9-10---7--5-|
a---------------------------------------|
e---------------------------------------|

e---------------------------------------------|
b---------------------------------------------|
g---------7---9-10-9-7------------------------|
d--7-9-10--------------10-7-9-10---4-2--4-2---|
a-------------------------------------5-----5-|
e---------------------------------------------|


Verse
    Am        D     G      Am      G
e--0----------2-----3------0-------3-----------|
b--1----------3-----0------1-------0-----------|
g--2----------2-----0------2-------0-----------|
d--2----------0-----0------2-------0-----------|
a--0----------------2------0-------2-----------|
e-------------------3------0-------3---4-5-7---|  x2

e---------------------------------------------|
b-------------------5--6--3--5---5--6--3---5--|
g-------------------5--7--4--5---5--7--4---5--|
d---------5-7-8-------------------------------|
a-5---7-8-------------------------------------|
e---------------------------------------------|

e------------------------------------------------|
b------------------------------------------------|
g------------------------------------------------|
d-----------5-7-8--------2-3-5--------6-7-9----9-|
a---5---7-8----------3-5----------7-9----------7-|
e------------------------------------------------|

Chorus
e----------------------------------------|
b----------------------------------------|
g---------7---9-10-9-7-------------7--4--|
d--7-9-10--------------10-7-9-10---7--5--|
a----------------------------------------|
e----------------------------------------| x3


                                      G    B
e--------------------------------------3----0-|
b--------------------------------------0----0-|
g---------7---9-10-9-7-----------------0----1-|
d--7-9-10--------------10-7-9-10-------0----2-|
a--------------------------------------2----2-|
e--------------------------------------3----0-|


e-------------------------------------------13--------------------|
b---------------------------------12--13-15-----------------------|
g-----------------------13-14-------------------------------------|
d--------------12-14-15-------------------------------------------|
a----12-14-15-----------------------------------------------------|
e-----------------------------------------------------------------|

Verse 2
    Am        D     G      Am     G
e--0----------2-----3------0------3------------|
b--1----------3-----0------1------0------------|
g--2----------2-----0------2------0------------|
d--2----------0-----0------2------0------------|
a--0----------------2------0------2------------|
e-------------------3------0------3----4-5-7---|  x2

e---------------------------------------------|
b-------------------5--6--3--5---5--6--3---5--|
g-------------------5--7--4--5---5--7--4---5--|
d---------5-7-8-------------------------------|
a-5---7-8-------------------------------------|
e---------------------------------------------|

e------------------------------------------------|
b------------------------------------------------|
g------------------------------------------------|
d-----------5-7-8--------2-3-5--------6-7-9----9-|
a---5---7-8----------3-5----------7-9----------7-|
e------------------------------------------------|


Chorus
e----------------------------------------|
b----------------------------------------|
g---------7---9-10-9-7-------------7--4--|
d--7-9-10--------------10-7-9-10---7--5--|
a----------------------------------------|
e----------------------------------------| x3

                                       G    B
e--------------------------------------3----0-|
b--------------------------------------0----0-|
g---------7---9-10-9-7-----------------0----1-|
d--7-9-10--------------10-7-9-10-------0----2-|
a--------------------------------------2----2-|
e--------------------------------------3----0-|


Solo Acoustic
e----5----------------------------------------------------------------|
b-----8-6-5---6-5----5------------------------------------------------|
g------------7----7-----7-5-4----5-4---4-------4-7-5-4--5-4---5-4-5---|
d-----------------------------7------7---6--6----------7----4-------7-|
a-----------------------------------------7---------------------------|
e---------------------------------------------------------------------|

e---5---------5-7-8-7-5----------------------------------|
b-----8-6-5--6----------5--------------------------------|
g-----------7------------4-5-4--4------4-7-5-4---4-5-4---|
d------------------------------6--6--6---------7-------7-|
a-----------------------------------7--------------------|
e--------------------------------------------------------|

e------------------5-7-8-7-5-4-7-4----------------|
b------------6-5--5---------------5---------------|
g-----------7---5------------------4--------------|
d--------5-7------------------------6-----------7-|
a--5-7-8-----------------------------7---------7--|
e-------------------------------------4-0-5-7-8---|

e------------------5-7-8-7-5-0-12-0-10-0-8-7-5-7-8-5-7-8-|
b------------6-5--5--------------------------------------|
g-----------7----5---------------------------------------|
d--------5-7---------------------------------------------|
a---5-7-8------------------------------------------------|
e--------------------------------------------------------|


Solo 2 (electric guitar)
5
e--8^----10-10-10-10-10^-8-7-5--5-7-5---------5------|
b------------------------------8------8-5----5--5-8--|
g-----------------------------------------7-7--------|
d----------------------------------------------------|
a----------------------------------------------------|
e----------------------------------------------------|

e--5-----------5--------5------5------5------5-----------------|
b---7-8-5----5---5----5------5------5------5---5---------------|
g---------7^-------7^------7^-----7^-----7^------7-7---7---5-5-|
d-----------------------------------------------------7--7-----|
a--------------------------------------------------------------|
e--------------------------------------------------------------|

e-----------------------------------5-----5---5-7-5---8-5--5-----|
b------------------------------8---5--5-8---8-------8-----8---8--|
g--5-5---5-7-5---5-7-5---5-7-7---7-------------------------------|
d------7-------7-------7-----------------------------------------|
a----------------------------------------------------------------|
e----------------------------------------------------------------|

e--8----10--8-10-10^-12-12-12-12-12-12-10-8--------------------|
b----10-------------------------------------10-----------------|
g----------------------------------------------7-9-7-5-7-5--5~-|
d----------------------------------------------------------7---|
a--------------------------------------------------------------|
e--------------------------------------------------------------|

Verse
e---------------------------------------------|
b-------------------5--6--3--5---5--6--3---5--|
g-------------------5--7--4--5---5--7--4---5--|
d---------5-7-8-------------------------------|
a-5---7-8-------------------------------------|
e---------------------------------------------|

e------------------------------------------------|
b------------------------------------------------|
g------------------------------------------------|
d-----------5-7-8--------2-3-5--------6-7-9----9-|
a---5---7-8----------3-5----------7-9----------7-|
e------------------------------------------------|

Chorus
e----------------------------------------|
b----------------------------------------|
g---------7---9-10-9-7-------------7--4--|
d--7-9-10--------------10-7-9-10---7--5--|
a----------------------------------------|
e----------------------------------------| x3

e---------------------------3--2-----------------------------|
b-----------5-6-5-----------3--4-----------------------------|
g------4-5-7------7-5--4-5--4--4-------2-4-5-4-2-------------|
d----7----------------7-----5--4--2-4-5----------5-2-4-5-7-4-|
a---------------------------5--2-------------------------5-2-|
e---------------------------3--2-----------------------------|

e----------------------------------------------|
b----------------------------------------------|
g---------------------2-4-5--4-2---------------|
d--5-2-4-5-7--4-2-4-5------------5-2-4-5--7--4-|
a----------5--2---------------------------5--2-|
e----------------------------------------------|

End Solo

e---------------------------------------------------------------------------|
b-------8-87-8-10-------10----10----10-----10----10-10----10----10----------|
g--7-9^-----------10------12^----12^---12^---12^-------12^---12^---12^-12-9-|
d--------------------12-----------------------------------------------------|
a---------------------------------------------------------------------------|
e---------------------------------------------------------------------------|

e--------15^-15-13-12-12-13-12-------------------------------------------|
b------------------------------15-15-12-12-12~(12)-----------------------|
g--12-9------------------------------------------------------------------|
d--------------------------------------------------9-9-7--9-9-7---9-9-7--|
a--------------------------------------------------------9------9------9-|
e------------------------------------------------------------------------|

e-----------------|
b-----------------|
g-----------------|
d---9-9-7---9-9-7-|
a--------9--------|
e-----------------|





Comments


Popular Rainbow tabs & chords
Catch The Rainbow Bass Tabs
Sixteenth Sentury Greensleeves Bass Tabs
Rainbow Eyes 1 Chords
Street Of Dreams 1 Chords
Jealous Lover Tabs
Kill The King (Intro Ver 2) Tabs
Stone Cold Tabs
Too Late For Tears Tabs
Wolf To The Moon Intro Tabs
Rainbow Eyes Ukulele


Song lyrics



↑ Back to top | Tablatures and chords are parodies/interpretations of the original songs. You may use it for private study, scholarship, research or language learning purposes only
© 2014 AZChords.com Contact us | Privacy policy | DMCA | Add/correct tabs | Request tabs | Top 50 tabs