>
 >
Testify - Ratm

Testify - Ratm Guitar Tabs

Rage Against The Machine - Testify - Ratm chords, tabs, tablatures, lyrics

Guitar lessons | Add/correct | Request | Top 50 tabs Artists:  A B C D E F G H I J K L M N O P Q R S T U V W X Y Z 0-9

Testify - Ratm Guitar Tabs – Rage Against The Machine

CD, Sheet music, Poster

Do you like Testify - Ratm? Share with your friends now
Tabs
Tuning: DADGBE

ok, for the intro you're going to need a pedal, I use a Digitech because it has a
lot more flexibility to it, there's a lot of effects on it and you can make 
your own, This'll work on digitechs RP300, Rp400, RP200, I'm not sure about 
the RP50 or RP100 since they don't have a pedal, you might want to try putting 
an auto-wah effect. Well anyway, the best way to do this is with a Pedal with 
a synth like the digitech. You, want to set this effect up next to an effect 
that sounds close to the verse filter (ie. Scoop if you're using a digitech, 
if you're using another type of pedal you should look for a filter that is close 
to the verse filter).

the settings for the effect are...

Pickup: on   Hum->SC   Boutiq: on   Wha Minimum: 1   Wha Maximum: 99

Compressor: off

Amp Model: Higain: 10   Gain: 99   Amplvl: 50   4X12 V 1 (4X12 Vintage Mic 1)

Equalizer: on   Bass: 0   2500HZ   Midlvl: 0   Treble: 0

Noise Gate: on   Silncr (Silencer)   Attack 0   Thresh 10

Mood Effects:   Pitch: 15   Amount: 7   FXlevel: 50

Delay: off

Reverb: Hall   predelay: 10   Decay: 51   Damping: 49   Reverb Level: 20

*Important*   Expresion: Pedal   Parameter Assign: Volume Pre

Ok, that's it, sorry for people with different pedals that are way different 
then mine, if you're good enough with a pedal you can go with whatever I have 
here and try to fix the rest on your own.
But, if you have a pedal similair to mine this should be no problem. You'll 
basicly just year a really annoying sound when you play, but that's ok, that's 
how it's supposed to sound, so you didn't mess up.

The Intro itself is very simple, all you need to do is wah the filter with 
the pedal at a slow pace (listen to the song) while tremelo picking the 
low D string (E string in standered tuning), then, when the verse comes in, hit 
the switch on the pedal to the verse effect, I reccomended Scoop earlier, if 
you have it.

Chorus:

-------------------------------------------------------
--6----------------------------------------------------
--5----------------------------------------------------
--4--------------------------------------x-------------
--5------------------3-------------5p3---x-------------
--------3---5---0----------0-------------x---0---5p3---

--6---------------------------------------------12b----(Bend to---
--5---------------------------------------------12b------A--------
--4--------------7---10-----------------x-------12b-----<--13)----
--5--------------7---10--------5p3------x-------------------------
-------3h5---0---7---10----0------------x---0--------------------- Repeat whole thing twice

Verse/Intro (with words)

Chorus (with words)

Verse/Intro (with words)

Bridge:

---------------------------
---------------------------
---19-xx-19-xx-19-xx-19-xx-
------xx----xx----xx----xx-
---17-xx-17-xx-17-xx-17-xx-
--------------------------- and so on...

Solo:

Ok, for the Solo you are going to switch back to The Intro/Verse Filter, the one 
I explained how to do above. you are going to take the jack out of the 
guitar (note: some jacks have mostly rubber around it, and only the part of 
the jack that doesn't have the rubber is the part you put in the guitar, 
other's are mostly metal through the Body of the Jack, if your jack is like 
that, then wrap some ruper bands around the metal part to do this successfully) 
you grab the Rubber part of the jack without putting your hands on the 
metal, because if you do, it'll make the volume of the sound go way down. Now 
that you have the jack out, place it on a metal part of your guitar (it also 
works on other thing, like your face, try it, it's fun!) then with the pedal, 
you wah it, and it make the sound for the solo. You may want to watch the Video 
on Conan O'brien for a good view of how to do this. at the end of the solo, 
you strum the strings very shortly before putting the jack back in, right 
after doing so put the jack in the guitar and wah the pedal, it's the effect 
you get at the very end of the solo, listen for it in the song.

Ok now switch back to your Chorus Filter (scoop, or whatever you are using)

Build-up:

----------------------------
----------------------------
---10-----------------------
---10-----------10------0---
---8------------10------0---
----------------10------0--- Repeat twice

Now TESTIFY!

Chorus

Ending:

------------------
------------------
------------------
------------------
--5b--5b--5b--5b--
------------------


Ok, now we got that down, Time for the bass

Tuning: DADG

Intro:

On the intro, the bass comes after 5 counts on the drums, (don't follow the guitar)

--------------
--------------
--5b-5b-5b-5b-
-------------- repeat X4 (again, follow the drum line)

Chorus:

--------------------------------------
--------------------------------------
---------------3-------5--3-----------
--0---3--5--0------0----------0---5--3

---------------------------------------(Bend to-
------------------------------------6b---<--A---
---------------0--3-------5--3-------------7)---
--0---3--5--0---------0----------0-------------- Repeat X2

Verse: (with words)

It's imprtant to listen to the song and get the feal of the bass line during 
this part, listen to the drums once again because timing is critical.

--------------------------------------------
--------------------------------------------
--------------------------5--8--10-10-------
-12/----12/-0-\12--12/-0--------------(10/)-    ()=Not played on the last time
  ^
(played only on the first time)
Chorus (with words)

Verse (with words)

Bridge:

The timing to this is even harder, bet it's easy after you get used to it. Oh 
yeah, follow drums.

------------------------------------------
------------------------------------------
--------------------------0--3-------5--3-
--12/------0--5--3---12/---------0--------

---------------------------------------------
---------------------------------------------
--------------------------0--3-------5--3--5-
--12/------0--5--3---12/---------0-----------

Chorus (during solo)

Build-up:

------------------------
---3--------------------
---------------3--------
----------------------0- repeat X2

Chorus

Ending:

------------------
------------------
--5b--5b--5b--5b--
------------------


so there you have it, Bass and Guitar for Testify

P.S. Shout out to my hommies Grant, Jake, Kelly, and Bonnie for playing this 
song like there ain't no tommorrow! And, espeically Grant (the next Tom 
Morrello) for teaching me most of this song.





Comments


Popular Rage Against The Machine tabs & chords
Ghost Of Tom Joad Bass Tabs
Voice Of The Voiceless Drum Tabs
Bombtrack 11 Tabs
Born Of A Broken Man 1 Tabs
F*** The Police 2 Tabs
Geurilla Radio Tabs
Renegadez Of Funk Tabs
Revolver Tabs
Snake Charmer Tabs
The Ghost Of Tom Joad 2 Tabs


Song lyrics



↑ Back to top | Tablatures and chords are parodies/interpretations of the original songs. You may use it for private study, scholarship, research or language learning purposes only
© 2014 AZChords.com Contact us | Privacy policy | DMCA | Add/correct tabs | Request tabs | Top 50 tabs