» » »

Rage Against The Machine Mic Check Tabs (ver.1)

Artists:  A B C D E F G H I J K L M N O P Q R S T U V W X Y Z # 

Rage Against The Machine Mic Check Tabs (ver.1)

Rage Against The Machine
Rating:
0/5 (0 votes)

Hard to play? Try these video lessons and learn fast.
                Rage Against the Machine
Mic Check
intro/verse/end part 1
use delay pedal and set for 4 repeats
1--------------14----------------16-------------14---------------------
2----------14---------------14--------------14---------------14-18--
3------14--------------14---------------14---------------14----------
4-16--------------16----------------16---------------16--------------
5---------------------------------------------------------------------------
6---------------------------------------------------------------------------

chorus:bass

solo part 1

use delay pedal and have ehco repeats

1--------
2--------
3--------
4--------
5--------
6-16-/-
   /
PM--------

solo part 2

take allen wrench or a slider and slide them on the 6th string while using 
whammy
bar.

1----------
2----------
3----------
4----------
5----------
6-x/-x//-

solo part 3

use delay pedal but set for slapback delay and take hand and slide up and 
down the 6th string to the beat and use whammy bar when you here wah like 
sounds

1
2
3
4
5
6-x-/x-x/-

ending
delay on
1--------------
2--------------
3--------------
4--------------
5--------------
6-16-/-----delay off-x/x/x/x
    /                    swipe the 6th string to the beat 
PM----

ending 2

with whammy bar

1-16
2-14
3-14
            
Hard to play? Try these video lessons and learn fast. | Correct




comments powered by Disqus
↑ Back to top | Tablatures and chords are parodies/interpretations of the original songs. You may use it for private study, scholarship, research or language learning purposes only