» » »

Rage Against The Machine, Maggies Farm Dropd Tabs (ver.1)

Artists:  A B C D E F G H I J K L M N O P Q R S T U V W X Y Z # 

Maggies Farm Dropd Tabs (ver.1)

Rage Against The Machine Tabs
 Rating:
4/5 (4 votes)
Maggies Farm Dropd lessons Tabs too difficult? Try these video lessons and learn fast
1
                Rage Against The Machine - Maggies Farm
- Guitar: Tom Morello
- Tabbed: Gary Brown

Here is my interpretation of Rage Against The Machines version of the Bob Dylan classic.

I believe this is meant to be played in 'Drop B' tuning, but if you play it with a band
it sounds fine in 'Drop D'

Intro: The notes in brackets () use the side of your pleck (or finger) and tap the fret and release
to sound the following note.
E:-(12)r7--(12)r7-(12)r7--(12)r7-(10)r7-(10)r7-(10)r7-(10)r7----
B:--------------------------------------------------------------
G:-------------------------------------------------------------- x2
D:--------------------------------------------------------------
A:--------------------------------------------------------------
D:--------------------------------------------------------------

Main Riff:
E:--------------------------------------------------------------
B:--------------------------------------------------------------
G:-------------------------------------------------------------- x4
D:-------------------------------------------3------------------
A:---------------------------------------3-5---5-3--------------
D:12/0-0-3-0-0-0--0-3-0-0-5--0-0-3-0-0-0-----------5-3----------

Verse: 
E:--------------------------------------------------------------
B:--------------------------------------------------------------
G:-------------------------------------------------------------- x4
D:--------------------------------------------------------------
A:--------------------------------------------------------------
D:0-0-3-0-0-0--0-3-0-0-5--0-0-3-0-0-0---------------------------

Verse pt.2
E:--------------------------------------------------------------
B:----2---------------------------------------------------------
G:----2-----2--------------------------------------------------- x2
D:----0-----2---------------------------------------------------
A:----------0---------------------------------------------------
D:0-0---0-0----0-0-3-0-0-0--0-3-0-0-5--0-0-3-0-0-0--------------

Bridge
E:--------------------------------------------------------------
B:--------------------------------------------------------------
G:-------------------------------------------------------------- x2 
D:--------------------------------------------------------------
A:--------------------------------------------------------------
D:0-0-x-x-0-x-x-0-x-x-x-x-0-0-x-x-0-x-x-0-x-x-x-x---------------

E:--------------------------------------------------------------
B:--------------------------------------------------------------
G:-------------------------------------------------------------- x2
D:--------------------------------------------------------------
A:--------------------------------------------------------------
D:0-0-3-0-0-0--0-3-0-0-5--0-0-3-0-0-0--0-3-0-0-5----------------

E:--------------------------------------------------------------
B:--------------------------------------------------------------
G:--------------------------------------------------------------
D:--7777777777/22222222222222-----------------------------------
A:--7777777777/22222222222222-----------------------------------
D:--7777777777/22222222222222-----------------------------------

E:--------------------------------------------------------------
B:--------------------------------------------------------------
G:--------------------------------------------------------------
D:--------------------------------------------------------------
A:--------------------------------------------------------------
D:0-0-x-x-0-x-x-0-x-x-x-x-0-0-x-x-0-x-x-0-x-x-x-x---------------

E:--------------------------------------------------------------
B:--------------------------------------------------------------
G:--------------------------------------------------------------
D:--7777777777/22222222222222--0--------------------------------
A:--7777777777/22222222222222--0--------------------------------
D:--7777777777/22222222222222--0--------------------------------

Main Riff:
E:--------------------------------------------------------------
B:--------------------------------------------------------------
G:-------------------------------------------------------------- x4
D:--------------------------------------------3-----------------
A:----------------------------------------3-5---5-3-------------
D:12/0-0-3-0-0-0--0-3-0-0-5--0-0-3-0-0-0------------5-3---------

Verse:
E:--------------------------------------------------------------
B:--------------------------------------------------------------
G:-------------------------------------------------------------- x4
D:--------------------------------------------------------------
A:--------------------------------------------------------------
D:0-0-3-0-0-0--0-3-0-0-5--0-0-3-0-0-0---------------------------

E:--------------------------------------------------------------
B:----2---------------------------------------------------------
G:----2-----2--------------------------------------------------- x2
D:----0-----2---------------------------------------------------
A:----------0---------------------------------------------------
D:0-0---0-0----0-0-3-0-0-0--0-3-0-0-5--0-0-3-0-0-0--------------

Bridge
E:--------------------------------------------------------------
B:--------------------------------------------------------------
G:-------------------------------------------------------------- x2 
D:--------------------------------------------------------------
A:--------------------------------------------------------------
D:0-0-x-x-0-x-x-0-x-x-x-x-0-0-x-x-0-x-x-0-x-x-x-x---------------

E:--------------------------------------------------------------
B:--------------------------------------------------------------
G:-------------------------------------------------------------- x2
D:--------------------------------------------------------------
A:--------------------------------------------------------------
D:0-0-3-0-0-0--0-3-0-0-5--0-0-3-0-0-0--0-3-0-0-5----------------

E:--------------------------------------------------------------
B:--------------------------------------------------------------
G:--------------------------------------------------------------
D:--7777777777/22222222222222-----------------------------------
A:--7777777777/22222222222222-----------------------------------
D:--7777777777/22222222222222-----------------------------------

E:--------------------------------------------------------------
B:--------------------------------------------------------------
G:--------------------------------------------------------------
D:--------------------------------------------------------------
A:--------------------------------------------------------------
D:0-0-x-x-0-x-x-0-x-x-x-x-0-0-x-x-0-x-x-0-x-x-x-x---------------

E:--------------------------------------------------------------
B:--------------------------------------------------------------
G:--------------------------------------------------------------
D:--7777777777/22222222222222--0--------------------------------
A:--7777777777/22222222222222--0--------------------------------
D:--7777777777/22222222222222--0--------------------------------

Solo:
E:----------------------------------------------------------------
B:----------------------------------------------------------------
G:-----11^----11^----11^----11^-12--14^-12-14^-11^-12--14^-12-14^-
D:--10-----10-----10-----10---------------------------------------
A:----------------------------------------------------------------
D:----------------------------------------------------------------

Intro:
E:-(12)r7--(12)r7-(12)r7--(12)r7-(10)r7-(10)r7-(10)r7-(10)r7---
B:-------------------------------------------------------------
G:------------------------------------------------------------- x2
D:-------------------------------------------------------------
A:-------------------------------------------------------------
D:-------------------------------------------------------------


E:-(12)r7--(12)r7-(12)r7-----(10)r7-(10)r7-(10)r7--------------
B:-------------------------------------------------------------
G:------------------------------------------------------------- x2
D:-----------------------5/7----------------------5/7----------
A:-----------------------5/7----------------------5/7----------
D:-----------------------5/7----------------------5/7----------

E:-------------------------------------------------------------
B:-------------------------------------------------------------
G:-------------------------------------------------------------
D:--7777777777/22222222222222--0-------------------------------
A:--7777777777/22222222222222--0-------------------------------
D:--7777777777/22222222222222--0-------------------------------

E:-------------------------------------------------------------
B:-------------------------------------------------------------
G:------------------------------------------------------------- x4
D:--------------------------------------------3----------------
A:----------------------------------------3-5---5-3------------
D:12/0-0-3-0-0-0--0-3-0-0-5--0-0-3-0-0-0------------5-3--------

E:-------------------------------------------------------------
B:-------------------------------------------------------------
G:-------------------------------------------------------------
D:----------------------------------------9--7-----------------
A:----------------------------------------9--7-----------------
D:12/0-0-3-0-0-0--0-3-0-0-5--0-0-3-0-0-0--9--7-----------------

E:-------------------------------------------------------------
B:-------------------------------------------------------------
G:------------------------------------------------------------- Reapeat Till End
D:--------------------------------------------3----------------
A:----------------------------------------3-5---5-3------------
D:12/0-0-3-0-0-0--0-3-0-0-5--0-0-3-0-0-0------------5-3--------

What better time than now?
-Rage

(All feedback welcome)
            
Submit corrections

comments powered by Disqus
↑ Back to top | Rage Against The Machine Tabs for Maggies Farm Dropd. Lyrics for acoustic guitar and electric guitar. 1 Tablatures and chords are parodies/interpretations of the original songs. You may use it for private study, scholarship, research or language learning purposes only