>
 >
Killing In The Name Of

Killing In The Name Of Guitar Tabs

Rage Against The Machine - Killing In The Name Of chords, tabs, tablatures, lyrics

Guitar lessons | Add/correct | Request | Top 50 tabs Artists:  A B C D E F G H I J K L M N O P Q R S T U V W X Y Z 0-9

Killing In The Name Of Guitar Tabs – Rage Against The Machine

CD, Sheet music, Poster

Do you like Killing In The Name Of? Share with your friends now
TabsTabs v2Tabs v3
Tuning: DADGbe

Intro:
e---------------
b---3--3--3--3--
G---2--2--2--2--
D---0--0--0--0--
A---0--0--0--0-- x1
D---0--0--0--0--

Bass Plays then:
G----------------------------------
D----------------------------------
A------666-----666-----666-----666-
D--000-----000-----000-----000-----

After 4 Times Guitar Comes In Again:
                      x3                  x1                    x3                  x1
e---------------------|-------------------|---------------------|-------------------|
b---------------------|-------------------|---------------------|-------------------|
G-------------11-12---|-------------12^---|-------------11-12---|-------------12^---|
D-------11-12---------|-------11-12-------|-------11-12---------|-------11-12-------|
A---------------------|-------------------|---------------------|-------------------| x1
D---000---------------|---000-------------|---000---------------|---000-------------|

Then:
e-------------------------------
b-------------------------------
G-------------------------------
D-------------------------------
A-----666-----666-----666-----6- x1
D-000-----000-----000-----000---

KILLING IN THE NAME OF!!!

Verse:
e---------------------------
b---------------------------
G---------------------------
D-----------3h4-------------
A----5--3h5-----5-0--2h3-2-- x12
D-----------------0--2h3-2--

Chorus:
e----------------------------------------------------------------------------------
b----------------------------------------------------------------------------------
G----------4--------3--------2---------------------4--------3--------2--55555555---
D---------------------------------2-3-2--------------------------------------------
A---5--3h5---5--3h5---5--3h5---5--------3---5--3-5---5--3-5---5--3-5----33333333--- x1
D----------------------------------------------------------------------------------

After-Chorus:

e----------                                            e---xxxxxxxx---
b----------                                            b---xxxxxxxx---
G--7-7--7--        but after 5 times he go mute notes  G---xxxxxxxx---
D----------         You Will Hear It                   D---xxxxxxxx---
A--5-5--5-- x12  				       A---xxxxxxxx---
D----------				               D---xxxxxxxx---


Riff 1:
e-----------------
b-----------------
G--777777777777---
D-----------------
A--555555555555--- x1
D-----------------

Riff 2:
e----------------------
b----------------------
G---7--7-7--7----------
D----------------------
A---5--5-5--5---0-3-5-- x8
E---------------0-3-5--

Verse x3

Verse Variation:
e--------------------------------
b--------------------------------
G--------------------5-6-7--10---
D---------3-4--5-6-7-------------
A--5--3-5------------------------
D--------------------------------

Verse x4

Chorus x2

After-Chorus x12

Riff 1 x1

Riff 2 x8

Solo (I know this is not the real solo but I play it so because this is easier and so bad isn't it):
e----------------------------------------------
b----------------------------------------------
G--17----14----12----10---7---5----14/\/\/\/\--
D----------------------------------------------
A-----15----12----10----8---5---3-------------- x1
D----------------------------------------------

e------------------------------------------------------------------------------------------------------
b-------------------------------------------------10/\/\/\/\-------10/\/\/\/\--------------------------
G--17----14----12----10---7---5---7/\/\/\/\------------------------------------------------------------
D----------------------------------------------10------------10----------------10/\/\/\/\-10/12\10/12--
A-----15----12----10----0---5---3-----------12------------------12------------------------------------- x1
D------------------------------------------------------------------------------------------------------

e-----------------------------------------
b-----------------------------------------
G---19/\/\/\/\---21/\/\/\/\---13/\/\/\/\--
D--------------0------------0-------------
A----------------------------------------- x1
D-----------------------------------------

Build Up:
e------------------------------------------------------
b------------------------------------------------------
G---7--9--10--12--14--15--17--19-19-19-19-19-19-19-19--
D------------------------------------------------------
A---5--7---8--10--12--13--15--17-17-17-17-17-17-17-17-- x1
D------------------------------------------------------
    #  #   #   #   #   #   #

#= Strum these notes very fast, about 24 times

Riff 2 x8

Finish:
e---5-5---5-5-5-5--
b---6-6---6-6-6-6--
G---5-5---5-5-5-5--
D---7-7---7-7-7-7--
A---5-5---5-5-5-5-- x4
D---5-5---5-5-5-5--

Outro:
e-----------------
b-----------------
G---7-------------
D-----------------
A---5--------666-- x1
D--------000------
    #

#= Strum these notes very fast, about 24 times





Comments


Popular Rage Against The Machine tabs & chords
Kick Out The Jams 2 Bass Tabs
Know Your Enemy 3 Bass Tabs
Zapata's Blood 1 Bass Tabs
Freedom Drum Tabs
Ghost Of Tom Joad Intro Tabs
How I Could Just Kill A Man 2 Tabs
Matrix Theme Tabs
Settle For Nothing Tabs
Take The Power Back 1 Tabs
Voice Of The Voiceless  1 Tabs


Song lyrics



↑ Back to top | Tablatures and chords are parodies/interpretations of the original songs. You may use it for private study, scholarship, research or language learning purposes only
© 2014 AZChords.com Contact us | Privacy policy | DMCA | Add/correct tabs | Request tabs | Top 50 tabs