» » »

Freedom Bass tabs (ver.1)

Artists:  A B C D E F G H I J K L M N O P Q R S T U V W X Y Z # 

Freedom Bass tabs (ver.1)

Rage Against The Machine
Rating:
0/5 (0 votes)

Tabs too difficult? Try these video lessons and learn fast.
                Freedom- RATM
standard tuning-dropped d

Intro
G-----------------------------------------------------------------------|
D-----------------------------------------------------------------------|
A--5----------3--------------5--5----------5-----------3-------------5--|
D----0--3--5-----5--3--5--3----------0--3-----0--3--5-----5--3--5--3----|

G--------------------------------------------------------------------------|
D--------------------------------------------------------------------543---|
A--5----------3--------------5--5----------5-----------3----------------543|
D----0--3--5-----5--3--5--3----------0--3-----0--3--5-----5--3--5--3-------|

G-----------------------------------------------------------------------|
D-----------------------------------------------------------------------|
A--5----------3--------------5--5----------5-----------3-------------5--|x2
D----0--3--5-----5--3--5--3----------0--3-----0--3--5-----5--3--5--3----|

Verse
G---------------------------------------------------------|
D---------------------------------------------------------|
A---------------------------------------------------------|
D--0--0--00--0---0--0--00--0---0--0--00--0---0--0--00--0--|

Chorus (i guess)
G-----------------------------------------------------------------------|
D-----------------------------------------------------------------------|
A--5----------3--------------5--5----------5-----------3-------------5--|
D----0--3--5-----5--3--5--3----------0--3-----0--3--5-----5--3--5--3----|

G--------------------------------------------------------------------------|
D--------------------------------------------------------------------543---|
A--5----------3--------------5--5----------5-----------3----------------543|
D----0--3--5-----5--3--5--3----------0--3-----0--3--5-----5--3--5--3-------|

G-----------------------------------------------------------------------|
D-----------------------------------------------------------------------|
A--5----------3--------------5--5----------5-----------3-------------5--|x2
D----0--3--5-----5--3--5--3----------0--3-----0--3--5-----5--3--5--3----|

Verse
G---------------------------------------------------------|
D---------------------------------------------------------|
A---------------------------------------------------------|x2
D--0--0--00--0---0--0--00--0---0--0--00--0---0--0--00--0--|

very difficult bass solo
G---------------------------------------------------------|
D---------------------------------------------------------|
A---------------------------------------------------------|
D--0--0--00--0---0--0--00--0---0--0--00--0---0--0--00--0-

Anger is a gift
G-------------------------|
D-------------------------|
A--3-3---5---5--3-3---5---|x6
D-------------------------|

guitar solo (same as chorus)
G-----------------------------------------------------------------------|
D-----------------------------------------------------------------------|
A--5----------3--------------5--5----------5-----------3-------------5--|
D----0--3--5-----5--3--5--3----------0--3-----0--3--5-----5--3--5--3----|

G--------------------------------------------------------------------------|
D--------------------------------------------------------------------543---|
A--5----------3--------------5--5----------5-----------3----------------543|
D----0--3--5-----5--3--5--3----------0--3-----0--3--5-----5--3--5--3-------|

G-----------------------------------------------------------------------|
D-----------------------------------------------------------------------|
A--5----------3--------------5--5----------5-----------3-------------5--|x2
D----0--3--5-----5--3--5--3----------0--3-----0--3--5-----5--3--5--3----|

G------------------------------------------------------------------|
D-----------------5--3--5--3--5------------------------------------|
A--5--3--5--3--5-----------------3--2--3--2--3-------------------3-|x4
D-----------------------------------------------5--3--5--3--5--3---|

Verse
G---------------------------------------------------------|
D---------------------------------------------------------|
A---------------------------------------------------------|x2
D--0--0--00--0---0--0--00--0---0--0--00--0---0--0--00--0--|

very difficult bass solo
G---------------------------------------------------------|
D---------------------------------------------------------|
A---------------------------------------------------------|
D--0--0--00--0---0--0--00--0---0--0--00--0---0--0--00--0--|

Anger is a gift
G-------------------------|
D-------------------------|
A--3-3---5---5--3-3---5---|x6
D-------------------------|

G--------------------|
D--------------------|
A------------3-4-5---|x18
D---3-5-6-7--------0-|

G-------------------------|
D--0------0-0-0-0-0----0--|
A-------------------------|
D-------------------------|
            
Tabs too difficult? Try these video lessons and learn fast.


comments powered by Disqus
↑ Back to top | Tablatures and chords are parodies/interpretations of the original songs. You may use it for private study, scholarship, research or language learning purposes only