>
 >
Freedom 5

Freedom 5 Bass Tabs

Rage Against The Machine - Freedom 5 chords, tabs, tablatures, lyrics

Guitar lessons | Add/correct | Request | Top 50 tabs Artists:  A B C D E F G H I J K L M N O P Q R S T U V W X Y Z 0-9

Freedom 5 Bass Tabs – Rage Against The Machine

CD, Sheet music, Poster

Do you like Freedom 5? Share with your friends now
Bass TabsBass Tabs v2Bass Tabs v3Bass Tabs v4Bass Tabs v5Drum TabsTabsTabs v2Tabs v3Tabs v4Tabs v5Tabs v6Tabs v7
Bassist: Tim Commerford

Drop D Tuning (D A D G)

Intro:
G|-------------------------------------------------------------|
D|-------------------------------------------------------------|
A|----5-------3---------5--5-----5-------3---------5--x-x-x----|
D|------0-3-5---5-3-5-3-----0-3---0-3-5---5-3-5-3--------------|

G|-------------------------------------------------------------|
D|-------------------------------------------------5-4-3-------|
A|----5-------3---------5--5-----5-------3---------------5-4-3-|
D|------0-3-5---5-3-5-3-----0-3---0-3-5----5-3-5-3-------------|

G|-------------------------------------------------------------|
D|-------------------------------------------------------------|
A|----5-------3---------5--5-----5-------3---------5--x-x-x----|
D|------0-3-5---5-3-5-3-----0-3---0-3-5---5-3-5-3--------------|


G|-------------------------------------------------------------|
D|-------------------------------------------------------------|
A|----5-------3---------5--5-----5-------3---------5-----------|
D|------0-3-5---5-3-5-3-----0-3---0-3-5---5-3-5-3--------------|

Verse: (4x)
G|---------------|
D|---------------|
A|---------------|
D|---0-0----00-0-|

Intro Riff Again:
G|-------------------------------------------------------------|
D|-------------------------------------------------------------|
A|----5-------3---------5--5-----5-------3---------5--x-x-x----|
D|------0-3-5---5-3-5-3-----0-3---0-3-5---5-3-5-3--------------|

G|-------------------------------------------------------------|
D|-------------------------------------------------5-4-3-------|
A|----5-------3---------5--5-----5-------3---------------5-4-3-|
D|------0-3-5---5-3-5-3-----0-3---0-3-5----5-3-5-3-------------|

G|-------------------------------------------------------------|
D|-------------------------------------------------------------|
A|----5-------3---------5--5-----5-------3---------5--x-x-x----|
D|------0-3-5---5-3-5-3-----0-3---0-3-5---5-3-5-3--------------|


G|-------------------------------------------------------------|
D|-------------------------------------------------------------|
A|----5-------3---------5--5-----5-------3---------5-----------|
D|------0-3-5---5-3-5-3-----0-3---0-3-5---5-3-5-3--------------|

Verse: (4x)
G|---------------|
D|---------------|
A|---------------|
D|---0-0----00-0-|

Bass and Drums "Solo": (7x)
G|---------------|
D|---------------|
A|---------------|
D|---0-0----00-0-|

Anger is a Gift:
G|-----------------------------  --|
D|-----------------------------    |
A|---3-3-3-3-----5---5-3---3-5-    |-(11x)
D|-----------5-3---------5-----  --|

G|----------------------------|
D|----------------------------|
A|---3-3-3-3-----5------------|
D|-----------5-3--------------|

Guitar Solo:
G|-------------------------------------------------------------|
D|-------------------------------------------------------------|
A|----5-------3---------5--5-----5-------3---------5--x-x-x----|
D|------0-3-5---5-3-5-3-----0-3---0-3-5---5-3-5-3--------------|

G|-------------------------------------------------------------|
D|-------------------------------------------------5-4-3-------|
A|----5-------3---------5--5-----5-------3---------------5-4-3-|
D|------0-3-5---5-3-5-3-----0-3---0-3-5----5-3-5-3-------------|

G|-------------------------------------------------------------|
D|-------------------------------------------------------------|
A|----5-------3---------5--5-----5-------3---------5--x-x-x----|
D|------0-3-5---5-3-5-3-----0-3---0-3-5---5-3-5-3--------------|

G|-------------------------------------------------------------|
D|-------------------------------------------------------------|
A|----5-------3---------5--5-----5-------3---------5-----------|
D|------0-3-5---5-3-5-3-----0-3---0-3-5---5-3-5-3--------------|

Bridge: (4x)
G|------------------------------------------------|
D|-------------5-3-5-3-5--------------------------|
A|---5-3-5-3-5-----------3-2-3-2-3----------------|
D|---------------------------------5-3-5-3-5-3--3-|

Verse (The Guitar enter, then after 3 seconds or more the Bass enter): (4x)
G|---------------|
D|---------------|
A|---------------|
D|---0-0----00-0-|

Bass and Drums "Solo": (8x)
G|---------------|
D|---------------|
A|---------------|
D|---0-0----00-0-|

Anger is a Gift:
G|-----------------------------  --|
D|-----------------------------    |
A|---3-3-3-3-----5---5-3---3-5-    |-(7x)
D|-----------5-3---------5-----  --|

G|-----------------------------------|
D|-----------------------------------|
A|---3-3-3-3-3-3-3-3-3-3-3-3-3-3-3-3-|
D|-----------------------------------|

G|-----------------------------  --|
D|-----------------------------    |
A|---3-3-3-3-----5---5-3---3-5-    |-(7x)
D|-----------5-3---------5-----  --|

G|-----------------|
D|-----------------|
A|---3-3-3-3-------|
D|-----------5-3-0-|

Outro (The Guitar play it four times, then the Bass enter):(28x)
G|--------------------|
D|--------------------|
A|-------------3-4-5--|
D|---0-3-5-6-7--------|

G|---------------------|
D|---------------------|
A|---5-5-5-5-5-------5-|
D|---------------------|

Hope you enjoy it! (:





Comments


Popular Rage Against The Machine tabs & chords
Fistful Of Steel 3 Bass Tabs
Killing In The Name 4 Bass Tabs
Maggies Farm 2 Bass Tabs
Bullet In Your Head 1 Tabs
Guerilla Radio 2 Tabs
How Could I Just Kill A Man 1 Tabs
Settle For Nothing Tabs
Take The Power Back Tabs
Track Tabs
Voice Of The Voiceless  Tabs


Song lyrics



↑ Back to top | Tablatures and chords are parodies/interpretations of the original songs. You may use it for private study, scholarship, research or language learning purposes only
© 2014 AZChords.com Contact us | Privacy policy | DMCA | Add/correct tabs | Request tabs | Top 50 tabs