>
 >
End Of All Days

End Of All Days Guitar Tabs

Rage Against The Machine - End Of All Days chords, tabs, tablatures, lyrics

Guitar lessons | Add/correct | Request | Top 50 tabs Artists:  A B C D E F G H I J K L M N O P Q R S T U V W X Y Z 0-9

End Of All Days Guitar Tabs – Rage Against The Machine

CD, Sheet music, Poster

Do you like End Of All Days? Share with your friends now
Tabs
I got a request for this through email so here it is



Please Rate!

LEGEND:

b  : bend
r  : release
s  : slide
t  : right-hand tap
h  : hammer on
p  : pull off
() : implied note(s) created in bend, slide, or whammy

TUNE ALL STRINGS DOWN 1 STEP (DGCFAD)


VERSE

(arranged for one guitar)
-+--------------|--------------------6-|-(6)-6-----6------|-----------------||
-3--3-----3-----|-8-------6----------6-|-(6)-6-----6----5-|-(5)-5-----5-----||
-2--2-----2-----|---7-------7--------3-|-(3)-3-3-3-3-3--3-|-(3)-3-3-3-3-3-3-||
-0--0-0-0-0-0-0-|------0-------0-0---0-|-(0)-0-0-0-0-0--0-|-(0)-0-0-0-0-0-0-||
-+--------------|----------------------|------------------|-----------------||
-+--------------|----------------------|------------------|-----------------||


PRECHORUS

guitar 1

-+-------------|---------------|------------------|----------------|
-+------3------|--------3------|--------2-------3-|-(3)------2-----|
-+---3-----3---|-----3-----3---|-----2-----2------|-----2------2---|
-3-3---------3-|-3-3---------3-|-2-2---------2----|-------2------2-|
-+-------------|---------------|------------------|----------------|
-+-------------|---------------|------------------|----------------|


guitar 2

-+-------------|---------------|------------------|----------------|
-+-------------|---------------|------------------|----------------|
-3-------------|-(3)-----------|-2----------------|-(2)------------|
-3-------------|-(3)-----------|-2----------------|-(2)------------|
-1-------------|-(1)-----------|-0----------------|-(0)------------|
-+-------------|---------------|------------------|----------------|



guitar 1

-+-------------|---------------|------------------|----------------||
-+------3------|--------3------|--------5-------6-|-(6)------5-----||
-+---3-----3---|-----3-----3---|-----5-----5------|-----5------5---||
-3-3---------3-|-3-3---------3-|-5-5---------5----|-------5------5-||
-+-------------|---------------|------------------|----------------||
-+-------------|---------------|------------------|----------------||


guitar 2

-+-------------|---------------|------------------|----------------|
-+-------------|---------------|------------------|----------------|
-3-------------|-(3)-----------|-5----------------|-(5)------------|
-3-------------|-(3)-----------|-5----------------|-(5)------------|
-1-------------|-(1)-----------|-3----------------|-(3)------------|
-+-------------|---------------|------------------|----------------|



CHORUS PART A

guitar 1

-+--------------|----------------|--------------|--------------||
-+------6-----8-|-(8)------7-----|--------6-----|--------8-----||
-+---7----7-----|-----7------7---|-----7----7---|-----7----7---||
-7-7--------7---|-------7------7-|-7-7--------7-|-5-5--------5-||
-+--------------|----------------|--------------|--------------||
-+--------------|----------------|--------------|--------------||


guitar 2

-+--------------|----------------|--------------|--------------||
-+--------------|----------------|--------------|--------------||
-7--------------|-(7)------------|-3------------|--------------||
-7--------------|-(7)------------|-3------------|-5------------||
-5--------------|-(5)------------|-1------------|-5------------||
-+--------------|----------------|--------------|-3------------||


CHORUS PART B

guitar 1

-+-------------|---------------|------------------|----------------|
-+------3------|--------3------|--------5-------6-|-(6)------5-----|
-+---3-----3---|-----3-----3---|-----5-----5------|-----5------5---|
-3-3---------3-|-3-3---------3-|-5-5---------5----|-------5------5-|
-+-------------|---------------|------------------|----------------|
-+-------------|---------------|------------------|----------------|


guitar 2

-+-------------|---------------|------------------|----------------|
-+-------------|---------------|------------------|----------------|
-3-------------|-(3)-----------|-5----------------|-(5)------------|
-3-------------|-(3)-----------|-5----------------|-(5)------------|
-1-------------|-(1)-----------|-3----------------|-(3)------------|
-+-------------|---------------|------------------|----------------|


guitar 1

-+-------------|---------------|-----||
-+------3------|--------3------|-----||
-+---3-----3---|-----3-----3---|-----||
-3-3---------3-|-3-3---------3-|--5--||
-+-------------|---------------|--5--||
-+-------------|---------------|--3--||


guitar 2

-+-------------|---------------|-----||
-+-------------|---------------|-----||
-3-------------|-(3)-----------|-----||
-3-------------|-(3)-----------|--5--||
-1-------------|-(1)-----------|--5--||
-+-------------|---------------|--3--||



POST CHORUS

(arranged for one guitar)

         --s-s                          --s-s
-+---------------|-------------|--------------|------------|
-+---------------|-------------|--------------|------------|
-7-------7-9-10--|-------------|--------------|------------|
-7-------7-9-10--|-8------8--7-|-5------5-7-8-|-7--5--3--2-|
-5--5-5--5-7-8---|-8------8--7-|-5------5-7-8-|-7--5--3--2-|
-+---------------|-6-6-6--6--5-|-3-3-3--3-5-6-|-5--3--1--0-|


         --s-s                          --s-s
-+---------------|-------------|--------------|------------||
-+---------------|-------------|--------------|------------||
-7-------7-9-10--|-------------|--------------|------------||
-7-------7-9-10--|-8------8--7-|-5------5-7-8-|-10-8--7--5-||
-5--5-5--5-7-8---|-8------8--7-|-5------5-7-8-|-10-8--7--5-||
-+---------------|-6-6-6--6--5-|-3-3-3--3-5-6-|-8--6--5--3-||


SOLO

-+-----------|--------|----------|------------|
-+------8-10-|--------|--------3-|------------|
-10--10------|-7--7-5-|-3--3-5---|-5--3--2----|
-+-----------|--------|----------|----------5-|
-+-----------|--------|----------|------------|
-+-----------|--------|----------|------------|


-+-----------|--------|----------|------------|
-+------8-10-|--------|--------3-|-5--3-----3-|
-10--10------|-7--7-5-|-3--3-5---|-------5----|
-+-----------|--------|----------|------------|
-+-----------|--------|----------|------------|
-+-----------|--------|----------|------------|


-+------------|---------------|--------------|-------------------|
-+------------|---------------|-13--13-13-13-|-(13)--13-11-10-13-|
-12--12-12-12-|-(12)--10-9-10-|--------------|-------------------|
-+------------|---------------|--------------|-------------------|
-+------------|---------------|--------------|-------------------|
-+------------|---------------|--------------|-------------------|


 t  p  p  p   t  p  p  p   t  p  p  p   t  p  p  p
-17-13-12-10--15-13-12-10--17-13-12-10--18-13-12-10-|
-+--------------------------------------------------|
-+--------------------------------------------------|
-+--------------------------------------------------|
-+--------------------------------------------------|
-+--------------------------------------------------|


 t  p  p  p   t  p  p  p   t  p  p  p   t  p  p  p
-20-13-12-10--18-13-12-10--17-13-12-10--15-13-12-10-|
-+--------------------------------------------------|
-+--------------------------------------------------|
-+--------------------------------------------------|
-+--------------------------------------------------|
-+--------------------------------------------------|

                h  p  p      h  p  p
-10--12-13-|-12-13-12-10-----------------------|
-+---------|--------------10-11-10-8-----------|
-+---------|--------------------------10--9--8-|
-+---------|-----------------------------------|
-+---------|-----------------------------------|
-+---------|-----------------------------------|

                         h  p  p              h  p  h   p---s
-+--------|--------------------------|--------------------------|-----------|
-+--------|-10-11-12--11-12-11-10----|--------------------------|------8-10-|
-7--9--10-|-----------------------12-|-10--10-12-10-12-(10)-9-7-|-9-10------|
-+--------|--------------------------|--------------------------|-----------|
-+--------|--------------------------|--------------------------|-----------|
-+--------|--------------------------|--------------------------|-----------|

                                             ---s                    ---s
-10----------------------|-10----------------15-17-|-17--18-17-20-17-17-22-22-||
-+--10-10-10-10-10-10-10-|----10-10-10-10-10-------|--------------------------||
-+-----------------------|-------------------------|--------------------------||
-+-----------------------|-------------------------|--------------------------||
-+-----------------------|-------------------------|--------------------------||
-+-----------------------|-------------------------|--------------------------||



OUTRO SOLO (played over slow variations on CHORUS PART A)

 ----s---s    sweep  ---b----r  ---b----r     h p  ---s
-+-------------------8-(10)-(8)-------------------------||
-+----------------10------------8-(10)-(8)--6-8-6-------||
-+--------------9----------------------------------5--7-||
-12--10--7----7-----------------------------------------||
-+------------------------------------------------------||
-+------------------------------------------------------||


SONG ORDER

VERSE (10 times)
PRECHORUS (1 time)
CHORUS PART A (4 times)
CHORUS PART B (1 time)
VERSE (6 times)
PRECHORUS (1 time)
CHORUS PART A (4 times)
POST CHORUS (3 times)
PRECHORUS (1 times)
CHORUS PART A (4 times)
CHORUS PART B ( 1 time)
POST CHORUS
OUTRO SOLO





Comments


Popular Rage Against The Machine tabs & chords
Im Housin 2 Bass Tabs
Im Housin 5 Bass Tabs
J F K Bass Tabs
Revolver 2 Bass Tabs
Snoop Bounce Bass Tabs
Down Rodeo Chords
In My Eyes 1 Tabs
No Shelter 3 Tabs
Sleep Now In The Fire 1 Tabs
Slept In The Fire Tabs


Song lyrics



↑ Back to top | Tablatures and chords are parodies/interpretations of the original songs. You may use it for private study, scholarship, research or language learning purposes only
© 2014 AZChords.com Contact us | Privacy policy | DMCA | Add/correct tabs | Request tabs | Top 50 tabs