» » »

Bulls On Parade Bass tabs (ver.8)

Artists:  A B C D E F G H I J K L M N O P Q R S T U V W X Y Z # 

Bulls On Parade Bass tabs (ver.8)

Rage Against The Machine
Rating:
0/5 (0 votes)

Tabs too difficult? Try these video lessons and learn fast.
                I think this is right, but if you have any comments or corrections you can email

Intro
G|--------------------|
D|-4----4-4----4-4----|
A|--------------------|
E|---2------2------2--| x8

G|-------------------------|
D|-------------------------|
A|-------------------------|
E|-2-2-x-x-2-2-x-x-x-x-x-x-| x4

Verse
G|-----------------------------|
D|-----------------------------|
A|------0--2-0-----------------|
E|-0-2----------0-2--2-0--0-1--| x4

Chorus
G|-0-----------------0---------------------|
D|---2-----------------2-------------------|
A|-----------------------------------------|
E|-----2-2--0-2-2-2------2-2--2-2-2-2-0-2--| x4

Verse
G|-----------------------------|
D|-----------------------------|
A|------0--2-0-----------------|
E|-0-2----------0-2--2-0--0-1--| x4

Chorus
G|-0-----------------0---------------------|
D|---2-----------------2-------------------|
A|-----------------------------------------|
E|-----2-2--0-2-2-2------2-2--2-2-2-2-0-2--| x4

Bridge thing or something
G|------------------------|-----------------------|
D|------------7-9----7----|----------7------------|
A|--------7-9------9---7--|------7-9---9-7-5-7----|
E|-7-7--7-----------------|-7-7----------------5--|

G|-------------------------|-------------------------|
D|-------------------------|--------7h9-9-9-7h9-9-9--|
A|--------7h9-9-9-7h9-9-9--|-------------------------|
E|-7-7--7------------------|-7-7--7------------------|

G|-----------------------------|
D|-----------------------------|
A|------0--2-0-----------------|
E|-0-2----------0-2--2-0--0-1--| x4

G|------------------------------|
D|------------------------------|
A|------------------------------|
E|-2-2-x-x-2-2-x-x-x-x-x-x0--0--|
            
Tabs too difficult? Try these video lessons and learn fast.


comments powered by Disqus
↑ Back to top | Tablatures and chords are parodies/interpretations of the original songs. You may use it for private study, scholarship, research or language learning purposes only