» » »

Bulls On Parade Bass tabs (ver.2)

Artists:  A B C D E F G H I J K L M N O P Q R S T U V W X Y Z # 

Bulls On Parade Bass tabs (ver.2)

Rage Against The Machine
Rating:
0/5 (0 votes)

Tabs too difficult? Try these video lessons and learn fast.
                Rage Against The Machine - Bulls On Parade


Recorded tuned down a semitone, but played live in standard tuning

Intro/Outro
G|--------------------|
D|-4----4-4----4-4----|
A|--------------------|
E|---2------2------2--|

Pre-Verse
G|-----x-x-----x-x-x-x-x-x-|
D|-----x-x-----x-x-x-x-x-x-|
A|-----x-x-----x-x-x-x-x-x-|
E|-2-2-x-x-2-2-x-x-x-x-x-x-|

Verse
G|-----------------------------|
D|-----------------------------|
A|------0--2-0-----------------|
E|-0-2----------0-2--2-0--0-1--|

Chorus
G|-----------------------------------------|
D|-----------------------------------------|
A|-----------------------------------------|
E|-3-2-2-2--0-2-2-2--3-2-2-2--2-2-2-2-0-2--|

Bass Solo
G|------------------------|-----------------------|
D|------------7-9----7----|----------7------------|
A|--------7-9------9---7--|------7-9---9-7-5-7----|
E|-7-7--7-----------------|-7-7----------------5--|

G|-------------------------|-------------------------|
D|-------------------------|--------7h9-9-9-7h9-9-9--|
A|--------7h9-9-9-7h9-9-9--|-------------------------|
E|-7-7--7------------------|-7-7--7------------------|

Ending
G|-----x-x-----x-x-x-x-------|
D|-----x-x-----x-x-x-x-------|
A|-----x-x-----x-x-x-x-------|
E|-2-2-x-x-2-2-x-x-x-x-0--0--|
            
Tabs too difficult? Try these video lessons and learn fast.




comments powered by Disqus
↑ Back to top | Tablatures and chords are parodies/interpretations of the original songs. You may use it for private study, scholarship, research or language learning purposes only