» » »

Rage Against The Machine, Born Without A Face Bass tabs (ver.1)

Artists:  A B C D E F G H I J K L M N O P Q R S T U V W X Y Z # 

Born Without A Face Bass tabs (ver.1)

Rage Against The Machine Tabs
 Rating:
3.8/5 (5 votes)
Born Without A Face lessons Tabs too difficult? Try these video lessons and learn fast
                Rage Against The Machine - Born Without A Face


Although Timmy plays it in standard tuning it sounds ok in dropped D if u can't be arsed to change over.
 There is of course distortion in this song, if all u copycats wanna get it completely right I believe he uses 
an old Marshall Guvnor pedal which i have and sounds awseome! Also, I believe he uses a Jazz bass and occasionally
a Stingray.

Kewl guitar intro...

G:--------------------------------------------------------------------------|
D:--------------------------------------------------------------------------|
A:--7----------8---------7-5-7-------------8--------7-5-7----------8--------|
E:-------5--7--8------------------5--7-----8!----------------5--7--8--------|


G:----------------------------------------------------------|
D:----------------------------------------------------------|
A:--7-5-7------------8-----------7-5-7------------8---------|
E:-------------5--7--8----------------------5--7--8---------|


G:------------------------------------------------------------|
D:------------------------------------------------------------|
A:--7-5-7------------8----------------------------------------|
E:-------------5--7--8------8--8--8--8--1--1--1--3-----(3)----|
                                            dist on


G:--------------------------------------|
D:--------------------------------------|
A:--------------------------------------|
E:-(3)--3-3-3-3-3-3-3-3-3-3-3-3-3-3-3-3-|
Volume gradually increases


   Chorus                                                      (x5)
G:--------------------------------------------------------------------|
D:*------------------------------------------------------------------*|
A:*------------------------------------------------------------------*|
E:---3-0-3-0-3-0-3-0-3-0-3-0-3-0-3-0-1--3----X-X---X--X-X-X-X-X-------|
                                                 

                   (x4)
G:----------------------|----------------------|
D:----------------------|----------------------|
A:--7-5-7-----------8---|--7-5-7-----------8---|
E:------------5--7--8---|------------5--7--8---|
    distortion off


G:--------------------------------------------------------------------------|
D:--------------------------------------------------------------------------|
A:--7-5-7-----------8-----7-5-7-----------8---------------------------------|
E:------------5--7--8---------------5--7--8----8--8--8--8--1--1--1--3---(3)-|
                                                           distortion on


G:---------------|
D:--Chorus-(x4)--|
A:---------------|
E:---------------|


G:---------------------------------------------------------------|
D:---------------------------------------------------------------|
A:---7-5-7-----------8----------7-5-7---5-7-----------8----------|
E:-------------5--7--8--------------------------5--7--8----------|
    distortion off

                        (x2)
G:---------------------------|
D:---------------------------|
A:--7-5-7-----------8--------|
E:------------5--7--8--------|


G:--------------------------------------------------------|
D:--------------------------------------------------------|
A:----7-----------8----------7-5-7------------8-----------|
E:----------5--7--8---------------------5--7--8-----------|
                                                     

                        (x10)
G:--------------------------|-------------------------|
D:--------------------------|-------------------------|
A:--------------------------|-------------------------|
E:--3--1--3--1--3--1--3--1--|---3--b(4)r-(3)------3-\-|
   distortion on                        bend       

Thats it!
            
Submit corrections

comments powered by Disqus
↑ Back to top | Rage Against The Machine Bass for Born Without A Face. Lyrics for acoustic guitar and electric guitar. Tablatures and chords are parodies/interpretations of the original songs. You may use it for private study, scholarship, research or language learning purposes only