» » »

Rage Against The Machine, Bomb Track Tabs (ver.13)

Artists:  A B C D E F G H I J K L M N O P Q R S T U V W X Y Z # 

Bomb Track Tabs (ver.13)

Rage Against The Machine Tabs
 Rating:
4/5 (4 votes)
Bomb Track lessons Tabs too difficult? Try these video lessons and learn fast
                i sat around all night and finally figured out how to play the whole thing, b4 i just had the intro...

this is probubly all correct eccept for a few minor errors



intro:

D||-------------|-------------------------------------||
A||-------------|-------------------------------------||
F||-------------|-------------------------------------||
C||-------------|---------7---------------------------||
G||--9-7-7------|--9-7-7-9----9-7-7--------9-7-7------||
D||-0---9-7-7-5-|-0---9------0---9-7-7-5--0---9-7-7-5-|| 
play that about 5 times

D||---------------------------------------------------||
A||---------------------------------------------------||
F||---------------------------------------------------||
C||-----5---------5-3-----5---------------------------||
G||-------------------------------5-4-3---------------||
D||-1-3---1-3-1-3-----1-3---1-3-1---------------------|| 
play that about 5 times too

verse:
D||---------------------------------------------------||
A||---------------------------------------------------||
F||---------------------------------------------------||
C||---------------------------543---------------------||
G||---------------1--------------543------------------||
D||-3-3-1-3-3-3-3---3-3-1-3-1-------------------------|| 
play that through the whole verse

chorus:
D||---------------------------------------------------||
A||---------------------------------------------------||
F||---------------------------------------------------||
C||-----5---------5-3-----5---------------------------||
G||-------------------------------5-4-3---------------||
D||-1-3---1-3-1-3-----1-3---1-3-1---------------------|| 

verse:
D||---------------------------------------------------||
A||---------------------------------------------------||
F||---------------------------------------------------||
C||---------------------------543---------------------||
G||---------------1--------------543------------------||
D||-3-3-1-3-3-3-3---3-3-1-3-1-------------------------|| 

chorus:
D||---------------------------------------------------||
A||---------------------------------------------------||
F||---------------------------------------------------||
C||-----5---------5-3-----5---------------------------||
G||-------------------------------5-4-3---------------||
D||-1-3---1-3-1-3-----1-3---1-3-1---------------------|| 

solo:

D||---------------------xxx-------------------------------||
A||---------------------xxx-------------------------------||
F||---------------------xxx-------------------------------||
C||---------------------xxx-------------------------------||
G||---------1-----------xxx----------1---------2p0-1p0-3p0||
D||-3-1-3-1---3-1-3-1-3-xxx--3-1-3-1---3-1-3-1------------|

pay that x amount of times

burn burn....

D||---------------------------------------------------||
A||---------------------------------------------------||
F||---------------------------------------------------||
C||-----5---------5-3-----5-------7-5-4---------------||
G||-------------------------------5-4-3-7-5-4---------||
D||-1-3---1-3-1-3-----1-3---1-3-1-------5-4-3---------|| 
 
and now for the lyrics!!!!!!

It's just another bombtrack
And suckas be thinkin' that they can fade this
But I'm gonna drop it at a higher level
'Cause I'm inclined to stoop down
Hand out some beat-downs
Cold runna train on punk ho's that
Think they run the game
But I learned to burn that bridge and delete
Those who compete at a level that's obsolete
Instead I warm my hands upon the flames of the flag
As I recall our downfall
And the business that burned us all
See through the news and the views that twist reality
Enough
I call the bluff
Manifest destiny

Landlords and power whores
On my people they took turns
Dispute the suits I ignite
And then watch 'em burn

With the thoughts from a militant mind
Hardline, hardline after hardline

Landlords and power whores
On my people they took turns
Dispute the suits I ignite
And then watch 'em burn

Burn, burn, yes ya gonna burn
Burn, burn, yes ya gonna burn
Burn, burn, yes ya gonna burn
Burn, burn, yes ya gonna burn

It goes a-one, two, three
Another funky radical bombtrack
Started as a sketch in my notebook
And now dope hooks make punks take another look
My thoughts ya hear and ya begin to fear
That ya card will get pulled if ya interfere

With the thoughts from a militant mind
Hardline, hardline after hardline

Landlords and power whores
On my people they took turns
Dispute the suits I ignite
And then watch 'em burn

Chorus
            
Submit corrections

comments powered by Disqus
↑ Back to top | Rage Against The Machine Tabs for Bomb Track. Lyrics for acoustic guitar and electric guitar. Tablatures and chords are parodies/interpretations of the original songs. You may use it for private study, scholarship, research or language learning purposes only