>
 >
Bombtrack 11

Bombtrack 11 Guitar Tabs

Rage Against The Machine - Bombtrack 11 chords, tabs, tablatures, lyrics

Guitar lessons | Add/correct | Request | Top 50 tabs Artists:  A B C D E F G H I J K L M N O P Q R S T U V W X Y Z 0-9

Bombtrack 11 Guitar Tabs – Rage Against The Machine

CD, Sheet music, Poster

Do you like Bombtrack 11? Share with your friends now
Bass TabsBass Tabs v2Bass Tabs v3Bass Tabs v4Bass Tabs v5TabsTabs v2Tabs v11Tabs v12Tabs v3Tabs v4Tabs v5Tabs v6Tabs v7Tabs v8Tabs v9Tabs v10
-------------------------------------------------------------------------------
                             RATM - Bombtrack (acoustic; some rare track.)
-------------------------------------------------------------------------------

Tuning: EADGBe

Intro/Verse/Chorus

e|---------------------------------------------------------------------------|
B|---------------------------------------------------------------------------|
G|---------------------------------------------------------------------------|
D|----------------x-xx-------------------------------------------------------|
A|-------7--------x-xx-------------------------------------------------------|
E|7--10-----0-----x-xx-------------------------------------------------------|


Play this after the chorus and before the solo dive bomb with the whammy bar
e|---------------------------------------------------------------------------|
B|-8\------------------------------------------------------------------------|
G|-7\------------------------------------------------------------------------|
D|-6\------------------------------------------------------------------------|
A|-7\------------------------------------------------------------------------|
E|-0\------------------------------------------------------------------------|


Solo 1 ( with whammy bar)
e|-------------------------15--14---------------------------14----14----14~--|
B|-------------------------13--12------------------------12----12----12------|
G|-12----14--16--------12------------------12----14--16----------------------|
D|-10----12--14--------10------------------10----12--14----------------------|
A|---------------------------------------------------------------------------|
E|---------------------------------------------------------------------------|


Solo 2
e|9-12-12--8-11-11--7-10-10--6-9-9--6/11-6/1---------------------------------|
B|---------------------------------------------------------------------------|
G|---------------------------------------------------------------------------|
D|---------------------------------------------------------------------------|
A|---------------------------------------------------------------------------|
E|---------------------------------------------------------------------------|

Outro
e|14-------------------------------------------------------------------------|
B|---12----------------------------------------------------------------------|
G|---------------------------------------------------------------------------|
D|---------------------------------------------------------------------------|
A|---------------------------------------------------------------------------|
E|---------------------------------------------------------------------------|



| /  slide up
| \  slide down
| h  hammer-on
| p  pull-off
| ~  vibrato
| +  harmonic
| x  Mute note

===============================================================================





Comments


Popular Rage Against The Machine tabs & chords
Freedom 5 Bass Tabs
Im Housin 2 Bass Tabs
It Had To Be Playin On The Jukebox Bass Tabs
The Ghost Of Tom Joad Bass Tabs
Bulls On Parade Chords
Bombtrack 5 Tabs
Born Of A Broken Man Correct Tabs
Calm As A Bomb Tabs
Kick Out The Jams 2 Tabs
People Of The Sun 1 Tabs


Song lyrics



↑ Back to top | Tablatures and chords are parodies/interpretations of the original songs. You may use it for private study, scholarship, research or language learning purposes only
© 2014 AZChords.com Contact us | Privacy policy | DMCA | Add/correct tabs | Request tabs | Top 50 tabs