>
 >
Bhulado

Bhulado Guitar Tabs

Raeth - Bhulado chords, tabs, tablatures, lyrics

Guitar lessons | Add/correct | Request | Top 50 tabs Artists:  A B C D E F G H I J K L M N O P Q R S T U V W X Y Z 0-9

Bhulado Guitar Tabs – Raeth

CD, Sheet music, Poster

Do you like Bhulado? Share with your friends now
ChordsTabsTabs v2Ukulele
Song     :Bhulado
Artist   :Raeth

This song is not too difficult. Practice the solo you will get it.

RIFT(R)
E|----|
B|-1b-|
G|----|
D|----|
A|----|
E|----|

NOTE: This above rift will be denoted by (R).


VERSE 1:
Am              G                  F                G         
Bhulado Bhulado woh baatein purani jo dil ko jalati rahi..
Am                  G                   F               E
Woh yaadein tumhari woh baatein tumhari jo humko satati rahi..
Am              G                  F                G         
Bhulado Bhulado woh baatein purani jo dil ko jalati rahi..
Am                  G                   F               E
Woh yaadein tumhari woh baatein tumhari jo humko satati rahi..
Am                     G                  F            G
ooooooooooo............ooooooooooo........oooo.........oo.....
Am                     G                  F            E
ooooooooooo............ooooooooooo........oooo.........oo.....


VERSE 2:
Am        G              F                G
Woh kaisi subha thi......khushiyon ka tha safar.......
Am       G              F          E  
sab yaha sang thae......koi thi na fikar......

F  -  G (Rhythmic)

Am     (R)               
Dukh aaya  
G      (R) 
sukh khoya 
F      (R) 
gam bangaya 
E
humsafar... 


SOLO:


E|------------------------------------------|
B|----------12-13--13h15p13-12-13--12h13-12-|
G|-------13---------------------------------|
D|-12-14------------------------------------|
A|------------------------------------------|
E|------------------------------------------|

E|----------------------------------15/17-15-|
B|-----------12-13--13h15-13-12-13-----------|
G|--------13---------------------------------|
D|-12-14-------------------------------------|
A|-------------------------------------------|
E|-------------------------------------------|

E|-12--15p12-13p12----------------------------------------|
B|-----------------15p12-13p12--15b-17-15-15h17p15-13-15\-|
G|--------------------------------------------------------|
D|--------------------------------------------------------|
A|--------------------------------------------------------|
E|--------------------------------------------------------|

E|-20b-20-17----------------------------------------------------|
B|-----------20b-20-17----------------12-13-12--12h13p12-10-12\-|
G|----------------------19b-19-16--13---------------------------|
D|--------------------------------------------------------------|
A|--------------------------------------------------------------|
E|--------------------------------------------------------------|

E|-24-24-24-24-24-24-24--22h24p22-20h22--19h20-19-|
B|------------------------------------------------|
G|------------------------------------------------|
D|------------------------------------------------|
A|------------------------------------------------|
E|------------------------------------------------|

E|----15h13h12----------12-------------------------------------------------------|
B|-15----------15h13h12----15h13h12-------15h13h12-------------------------------|
G|----------------------------------14h13----------14h13h12-14h13h12-------------|
D|-------------------------------------------------------------------14h13h12-14-|
A|-------------------------------------------------------------------------------|
E|-------------------------------------------------------------------------------|

E|-----------------|
B|-----------------|
G|-----------------|
D|-----------------|
A|-12/14/15/17-----|
E|-------------17\-|


VERSE 3:
Am         G               F           G
Apne kya Paraye kya sab rang hai ek se......
Am          G              F             E  
Kacche sab dhage hai yah bane hai raeth ke.....

F  -  G (Rhythmic)

Am   (R)
Manzil na 
G    (R)
sathi hai 
F    (R)
chalta hoon mai 
E
bekhabar..... 


Am                     G                  F            E
ooooooooooo............ooooooooooo........oooo.........oo.....


VERSE 4:
Am              G                  F                G         
Bhulado Bhulado woh baatein purani jo dil ko jalati rahi..
Am                  G                   F               E
Woh yaadein tumhari woh baatein tumhari jo humko satati rahi..
Am              G                  F                G         
Bhulado Bhulado woh baatein purani jo dil ko jalati rahi..
Am                  G                   F               E
Woh yaadein tumhari woh baatein tumhari jo humko satati rahi..
Am                     G                  F            G
ooooooooooo............ooooooooooo........oooo.........oo.....
Am                     G                  F            E
ooooooooooo............ooooooooooo........oooo.........oo.....





Comments


Popular Raeth tabs & chords
Akela Hoon Mein Chords
Akela Hun Mein Chords
Bhulka Do Chords
Aansoo Intro Tabs
Akela Hoon Main Tabs
Bhulado 1 Tabs
Akela Hoon Mein Ukulele
Akela Hun Mein Ukulele
Bhulado Ukulele
Bhulka Do Ukulele


Song lyrics



↑ Back to top | Tablatures and chords are parodies/interpretations of the original songs. You may use it for private study, scholarship, research or language learning purposes only
© 2014 AZChords.com Contact us | Privacy policy | DMCA | Add/correct tabs | Request tabs | Top 50 tabs