» » »

Raeth, Bhulado Tabs (ver.2)

Artists:  A B C D E F G H I J K L M N O P Q R S T U V W X Y Z # 

Bhulado Tabs (ver.2)

Raeth Tabs
 Rating:
4.4/5 (7 votes)
Bhulado lessons Tabs too difficult? Try these video lessons and learn fast
                I really didn't find it's solo tabs on the net so I decided to tab a rather RAW tab of the solo.
Rate dis one as this is only 1 out here.

I like farabi's solo very much. It's so with-the-rhythm feel.
Comments are always welcome.
Thank you
-signed, Gunjohn Kalita

Bhula Do
Raeth

The chords are simply the same for the whole song.

Am    G     F      E


During the "dukh aaya, sukh khoya...." part, the electric guitar plays like

e|-------1v----------|
b|--2-2--------------|
g|-------------------|
d|-------------------|
a|-------------------|
e|-------------------|


SOLO:-

e|----------7-8-8---8h10----7-8------8---7-----|
b|---10----------------------------------------|
g|--9------------------------------------------|
d|---------------------------------------------|
a|---------------------------------------------|
e|---------------------------------------------|


e|----------7-8-8---8h10----7-8------17--15----|
b|---10----------------------------------------|
g|--9------------------------------------------|
d|---------------------------------------------|
a|---------------------------------------------|
e|---------------------------------------------|


e|---12-13-12-13-12-13---10s12------------------|
b|----------------------------------------------|
g|----------------------------------------------|
d|----------------------------------------------|
a|----------------------------------------------|
e|----------------------------------------------|

e|--15------------------------------------------|
b|------15--13--13s15---------------------------|
g|----------------------------------------------|
d|----------------------------------------------|
a|----------------------------------------------|
e|----------------------------------------------|

e|--17-15-13---13-12-10---7-8-10----7--7h8---5--7---|
b|--------------------------------------------------|
g|--------------------------------------------------|
d|--------------------------------------------------|
a|--------------------------------------------------|
e|--------------------------------------------------|

e|--12-12-12-12-12-12-12----10-8-10------------|
b|-----------------------------------10--8-----|
g|---------------------------------------------|
d|---------------------------------------------|
a|---------------------------------------------|
e|---------------------------------------------|

e|--12-13-12-13-12-13-10-12-10-12-10-128-10-8-10-8-10-7-8-7-8-7-8--7---8--8s10---------------|
b|------------------------------------------------------------------------------10-----------|
g|-------------------------------------------------------------------------------------------|
d|-------------------------------------------------------------------------------------------|
a|-------------------------------------------------------------------------------------------|
e|-------------------------------------------------------------------------------------------|
            
Submit corrections

comments powered by Disqus
↑ Back to top | Raeth Tabs for Bhulado. Lyrics for acoustic guitar and electric guitar. Tablatures and chords are parodies/interpretations of the original songs. You may use it for private study, scholarship, research or language learning purposes only