» » »

Timebomb Bass tabs (ver.1)

Artists:  A B C D E F G H I J K L M N O P Q R S T U V W X Y Z # 

Timebomb Bass tabs (ver.1)

Radio Moscow
Rating:
0/5 (0 votes)

Hard to play? Try these video lessons and learn fast.
                
There's a ghost note or two that I left out because they aren't used in any consistent
way.  Just listen to the song closely and you'll pick up where some of the more subtle
stuff goes.  Or you can just follow this exactly and it will sound fine.

(0:15)
G|------------------------------------------|
D|----------------7-7----------------7-7----|
A|----------5/7-7--------------5/7-7--------|
E|-0-0--0-------------0-0--0----------------|x2

(0:30)
G|---------------------------------------|
D|---------------------------------------|
A|-3-3-3-3-45-5-5-5----------------------|
E|------------------3--0-0--0---0-0--0---|

-----------------------------------------|
-----------------------------------------|
-3-3-3-3-45555555555---------------------|
----------------------0-0--0---0-0--0----|x1

(0:45)
G|-------------------------------------------|
D|----------7/8-8-7-5----------7/8-8-7-5-----|
A|---------------------------------------7-5-|
E|-0-0--0--------------0-0--0----------------|x2

(1:00)
G|------------------------------------------|
D|----------------7-7----------------7-7----|
A|----------5/7-7--------------5/7-7--------|
E|-0-0--0-------------0-0--0----------------|x2

(1:14)
G|---------------------------------------|
D|---------------------------------------|
A|-3-3-3-3-45-5-5-5----------------------|
E|------------------3--0-0--0---0-0--0---|

-----------------------------------------|
-----------------------------------------|
-3-3-3-3-45555555555---------------------|
----------------------0-0--0---0-0--0----|x1

(1:27)
G|-----|
D|-----|
A|-----|
E|-12\-|x1

(1:28)
G|-------------------------------------------|
D|----------------9-7-5-555------------------|
A|---5-7---5-7--------------55555555---------|
E|-00----00----00-------------------88885555-|x2*

(1:42)
G|-------------------------------------------|
D|----------------9-7-5-555-------------5555-|
A|---5-7---5-7--------------555555558888-----|
E|-00----00----00----------------------------|x1*

(1:49)
G|-------------------------------------|
D|----------------9-7-5-555------------|
A|---5-7---5-7--------------55555555---|
E|-00----00----00-------------------8--|x1*

(1:56)
G|-------------------------------------------|
D|----------7/8-8-7-5----------7/8-8-7-5-----|
A|---------------------------------------7-5-|
E|-0-0--0--------------0-0--0----------------|x2

(2:11)
G|------------------------------------------|
D|------------------------------------------|
A|----------5/7-7--------------5/7-7--------|
E|-0-0--0----------5-5--0-0--0--------5-5---|x2

(2:25)
G|---------------------------------------|
D|---------------------------------------|
A|-3-3-3-3-45-5-5-5----------------------|
E|------------------3--0-0--0---0-0--0---|

-----------------------------------------|
-----------------------------------------|
-3-3-3-3-45555555555---------------------|
----------------------0-0--0---0-0--0----|x1

(2:38)
G|-----|
D|-----|
A|-----|
E|-12\-|x1

(2:39)
G|-------------------------------------------|
D|----------------9-7-5-555------------------|
A|---5-7---5-7--------------55555555---------|
E|-00----00----00-------------------88885555-|x2*

(2:53)
G|-------------------------------------------|
D|----------------9-7-5-555-------------5555-|
A|---5-7---5-7--------------555555558888-----|
E|-00----00----00----------------------------|x1*

(3:00)
G|-------------------------------------------|
D|----------------9-7-5-555------------------|
A|---5-7---5-7--------------55555555---------|
E|-00----00----00-------------------8--5-3-0-|x1*

The End

*This is how I like to play this riff and its variations, but I thought I would put
the cleaner sounding version in the tab.  The only difference is the hammer-on.
G|---------------------------------------------|
D|----------------7h9-7-5-555------------------|
A|---5-7---5-7----------------55555555---------|
E|-00----00----00---------------------88885555-|
            
Hard to play? Try these video lessons and learn fast. | Correct




comments powered by Disqus
↑ Back to top | Tablatures and chords are parodies/interpretations of the original songs. You may use it for private study, scholarship, research or language learning purposes only