» » »

Radio Moscow, Timebomb Tabs (ver.1)

Artists:  A B C D E F G H I J K L M N O P Q R S T U V W X Y Z # 

Timebomb Tabs (ver.1)

Radio Moscow Tabs
 Rating:
4/5 (4 votes)
Timebomb lessons Tabs too difficult? Try these video lessons and learn fast
1
                Radio Moscow
(album Radio Moscow)
Dan Auerbach, Parker Griggs

Standard tuning EADGBE

VERSES:

E|------------------------------------------------------------|
B|------------------------------------------------------------|
G|------------------------------------------------------------| 
D--------5-5-7-8-8-7-5--------5-5-7-8-8-7-5-------------------|
A|---5-7------------------5-7---------------7-5-7-------------|
E|-0--------------------0-------------------------------------|
1. It wasn't long ago,  when I found you with someone that I didn't know
2. Stand back 5 feet    My temper won't get the best of me

E|------------------------------------------------------------|
B|------------------------------------------------------------|
G|------------------------------------------------------------| 
D--------5-5-7-8-8-7-5--------5-5-7-8-7-5-7-5---5-------------|
A|---5-7------------------5-7-----------------7---7-----------|
E|-0--------------------0---------------------------7-5-3-0---|
1. Now you apology                 It's meaningless to me
2. I see as you        put a timebomb in my room

E|------------------------------------------------------------|
B|--------------------------------------------8---------------|
G|-------------5/7-7-7-5--------------5/7-7-7-----------------| 
D--------5-5-5------------------5-5-5-------------------------|
A|---5-7------------------5-7---------------------------------|
E|-0--------------------0-------------------------------------|
1. I could take it back        How could you use words like that
   No I don't forgive you      You realise it's all [...]
2. How it ticks                plays tricks   with my wits
   The timebomb is you         and the evil  things you do

CHORUS:

 C     C     C        CCC-D    D     D-C         E
You know I'm leaving,     I'm living here on my home

E|----------------------------------|
B|----------------------------------|
G|---b------------------------------| 
D---9-7-5------b-b-b----------------|
A|--------7---9-9-9-----------------|
E|----------------------------------|

 C       C     C        CCC-DDDDDDDDDDDD-C E
Found me some new friends   Found me a home
(2/3: )

E|----------------------p-----------|
B|---------------------3-0--p-------|
G|---b-----------------7---2-0------| 
D---9-7-5------b-b-b-----9------2---|
A|--------7---9-9-9--------7-10-7---|
E|----------------------------------|
            [chorus 2&3:] Just leave me alone   

    E  E D E  E D E             D  D C  A  E
E|----------------------p-----------------------|
B|----------------------------------------------|
G|--9---------------------------7--7-5-----9----| 
D---9------------------9-7-5-7--7--7-5--7--9----|
A|--7--7-5-7--7-5-7--7----------5--5-3--7--7----|
E|--------------------------------------5-------|
Why can't you let me be, just let me be
You can't control yourself, you can't control me
You don't you let me be, no you don't control me

SOLO

E|--------------h--12---h--12---h--12--b----|
B|------------12-15---12-15---12-15---12----|
G|--9--9-7-9--------------------------------|
D---9--9-7-9--------------------------------|
A|--7--7-5-7--------------------------------|
E|------------(bass:--5-6-6--5-3)-----------|

E|--------------b--b-12-12p10---------------------------------------------|
B|------------12--12---------12-11-10---10-12--b--------------------------|
G|--9--9-7-9-------------------------12-------12-9--10h12-10h12-10h12...--|
D---9--9-7-9--------------------------------------------------------------|
A|--7--7-5-7--------------------------------------------------------------|
E|------------(bass:--5-6-6--5-3)-----------------------------------------|


E|------------------------------------------------------|
B|---------------------------------8---10-8-7b----------|
G|---------7b------------9-7b--8h9---9---------9p7------|
D|--7h9-9-----9-7-7-7h9---------------------------9-----|
A|------------------------------------------------------|
E|------------------------------------------------------|

E|------------------------------------------------------|
B|------7-7h9/12-12/10-8-----8------7----9-7------------|
G---7-9------------------9-9---9--7---7------9-7--------|
D|-----------------------------------------------10-7---|
A|------------------------------------------------------|
E|------------------------------------------------------|

CHORUS 3
(End on E)

LYRICS:

Verse 1:
It wasn't long ago
When I found you with someone that I din't know
Now you apology
It's meaningless to me

I could take it back
How could you use words like that
No I don't forgive you
You realise it's all [...]

Chorus 1 :
You know I'm leaving,
I'm living here on my home
Found me some new friends
Found me a home

Verse 2:
Stand back five feet
My temper won't get the best of me
I see as you
Put a timebomb in my room
How it ticks
Plays tricks with my wits
The timebomb is you
And the evil things you do

Chorus 2 :
You know I'm leaving,
I'm living here on my home
Found me some new friends
Found me a home

Just leave me alone
Why can't you let me be
Just let me be
You can't control yourself
And you don't control me
Don't you let me be, 
Just let me be
No you don't control me
No you don't control me

[Solo]

Chorus 3 :
You know I'm leaving,
I'm living here on my home
Found me some new friends
Found me a home

Just leave me alone
Why can't you let me be
Just let me be
You can't control yourself
And you don't control me
Just let me be 
Just let me be
No you don't control me
No you don't control me


------------------------------------------------
With help by Chris and Heather for the lyrics
Any correction welcome
            
Submit corrections

comments powered by Disqus
↑ Back to top | Radio Moscow Tabs for Timebomb. Lyrics for acoustic guitar and electric guitar. 1 Tablatures and chords are parodies/interpretations of the original songs. You may use it for private study, scholarship, research or language learning purposes only