» » »

Radio Moscow, Timebomb Tabs (ver.2)

Artists:  A B C D E F G H I J K L M N O P Q R S T U V W X Y Z # 

Timebomb Tabs (ver.2)

Radio Moscow Tabs
 Rating:
4.2/5 (5 votes)
Timebomb lessons Tabs too difficult? Try these video lessons and learn fast
1
                e---------------------------------------------------------------------------|
b---------------------------------------------------------------------------|
g--------2-2h3-3-2-------------2-2h3-3-2-------------2-2h3-3-2--------------|
d--2-2h5-----------5-2---2-2h5-----------5-2---2-2h5-----------5-2----------|
a---------------------------------------------------------------------------|
e---------------------------------------------------------------------------|

e---------------------------------------------------------------------------|
b------------------------------------3-3-3------------------3-3-3-----------|
g--------2-2h3p2-------------2---2---------5~-------2---2---------5~--------|
d--2-2h5---------5-2-0---2h5---5---5------------2h5---5---5-----------------|
a---------------------------------------------------------------------------|
e---------------------------------------------------------------------------|

e---------------------------------------------------------------------------|
b--------------3-3-3------------------3-3-3---------------------------------|
g------2---2---------5~-------2---2---------5~------------------------------|
d--2h5---5---5------------2h5---5---5---------------------------------------|
a---------------------------------------------------------------------------|
e---------------------------------------------------------------------------|

Chorus:
e---------------------------------------------------------------------------|
b--5-5-5-5-6-7-7-7-7-7-----------5---3/5--5-5-5-5-6-777777777777------------|
g--5-5-5-5-6-7-7-7-7-7-2h3p2-------4------5-5-5-5-6-777777777777-2h3p2------|
d--5-5-5-5-6-7-7-7-7-7-------5-2----------5-5-5-5-6-777777777777-------5-2--|
a--3-3-3-3-4-5-5-5-5-5--------------------3-3-3-3-4-555555555555------------|
e---------------------------------------------------------------------------|

e-----------------------------|
b--5---3/5---5p3--------------|
g----4-----------4p3p2--------|
d----------------------5p2----|
a-----------------------------|
e-----------------------------|
            
Submit corrections

comments powered by Disqus
↑ Back to top | Radio Moscow Tabs for Timebomb. Lyrics for acoustic guitar and electric guitar. 1 Tablatures and chords are parodies/interpretations of the original songs. You may use it for private study, scholarship, research or language learning purposes only