>
 >
Street Spirit Complete

Street Spirit Complete Guitar Tabs

Radiohead - Street Spirit Complete chords, tabs, tablatures, lyrics

Guitar lessons | Add/correct | Request | Top 50 tabs Artists:  A B C D E F G H I J K L M N O P Q R S T U V W X Y Z 0-9

Street Spirit Complete Guitar Tabs – Radiohead

CD, Sheet music, Poster

Do you like Street Spirit Complete? Share with your friends now
Tabs
Radiohead
Street Spirit
The Bends



This song is basically made up of three main riffs on one electric-acoustic guitar and a couple of other
riffs on a second electric-acoustic. It's pretty simple, but makes your hand ache after a while if you're 
not used to it. If you haven't got an electric-acoustic guitar, use a normal electric with a chorus pedal
instead, but this song also sounds really nice with just an acoustic.

I guarantee this is 100% correct, however if you disagree, have any comments or questions or just want to 
say hey, e-mail me at the above address and i'll do my best to reply.

The separate guitar parts will be marked guitar 1 (G1) and guitar 2 (G2)

Order of song parts is as follows:
 INTRO - VERSE 1 - CHORUS 1 - VERSE 2 - CHORUS 2 - BRIDGE - VERSE 3 - CHORUS 2 - BRIDGE - OUTRO

Chords:   Am    x01220
          Em    022000
          C     x32010
          G     3x0003
.......
Intro .....................................................................
         Am                                                               .
       E-------0----------0----|-------0----------------||                .
       B-------------3---------|-1-----------0----------||                .
 G1    G----------2-----2----2-|----2-----2-----2-----2-|| Repeat 4 times .
       D-----2-----------------|-------------------2----||                .
       A--0--------------------|------------------------||                .
       E-----------------------|------------------------||.................


.........
Verse 1 ..................................................................................................
         Am                                               Am                                             |   
       E-------0----------0----|-------0----------------|-------0----------0----|-------0----------------|
       B-------------3---------|-1-----------0----------|-------------3---------|-1-----------0----------|
 G1    G----------2-----2----2-|----2-----2-----2-----2-|----------2-----2----2-|----2-----2-----2-----2-|  
       D-----2-----------------|-------------------2----|-----2-----------------|-------------------2----|
       A--0--------------------|------------------------|--0--------------------|------------------------|
       E-----------------------|------------------------|-----------------------|------------------------|
                                                                                                         |
LYRICS   Rows        of        hou -        ses                 all  bear -ing down on      me,          |
                                                                                                         |
         Am                                               Am                                             |                                  
       E-------0----------0----|-------0----------------|-------0----------0----|-------0----------------|
       B-------------3---------|-1-----------0----------|-------------3---------|-1-----------0----------|
 G1    G----------2-----2----2-|----2-----2-----2-----2-|----------2-----2----2-|----2-----2-----2-----2-|  
       D-----2-----------------|-------------------2----|-----2-----------------|-------------------2----|
       A--0--------------------|------------------------|--0--------------------|------------------------|
       E-----------------------|------------------------|-----------------------|------------------------|
                                                                                                         |
LYRICS    I         can         feel        their              blue hands        touch - ing me,         |
                                                                                                         |                                   
         Em                                               Em                                             |
       E-------0----------0----|-------0----------------|-------0----------0----|-------0----------------|
       B-------------3---------|-1-----------0----------|-------------3---------|-1-----------0----------|
 G1    G----------0-----0----0-|----0-----0-----0-----0-|----------0-----0----0-|----0-----0-----0-----0-|  
       D-----------------------|-------------------2----|-----------------------|-------------------2----|
       A-----2-----------------|------------------------|-----2-----------------|------------------------|
       E--0--------------------|------------------------|--0--------------------|------------------------|
                                                                                                         |
LYRICS   All  these things into    po - si - tion,       all these things we'll one  day swal-low whole. |
                                                                                                         |
                                                                                                         |
         Am                                               Am                                             |
       E-------0----------0----|-------0----------------|-------0----------0----|-------0----------------||
       B-------------3---------|-1-----------0----------|-------------3---------|-1-----------0----------||
 G1    G----------2-----2----2-|----2-----2-----2-----2-|----------2-----2----2-|----2-----2-----2-----0-||  
       D-----2-----------------|-------------------2----|-----2-----------------|-------------------2----||
       A--0--------------------|------------------------|--0--------------------|------------------------||
       E-----------------------|------------------------|-----------------------|------------------------||
                                                                                                         ||
LYRICS                                                                                          And fade ||
                                                                                                         ||
.........................................................................................................||


..........
Chorus 1 .................................................................................................
                                                                                                         |
          C                                               Em                                             |
       E-------0----------0----|-------0----------------|-------0----------0----|-------0----------------|
       B-------------3---------|-1-----------0----------|-------------3---------|-1-----------0----------|
 G1    G----0-----0-----0----0-|----0-----0-----0-----0-|----------0-----0----0-|----0-----0-----0-----0-|  
       D-----------------------|-------------------2----|-----2-----------------|-------------------2----|
       A--3--------------------|------------------------|-----------------------|------------------------|
       E-----------------------|------------------------|--0--------------------|------------------------|
                                                                                                         |
LYRICS         _____________________________          out       _________________________        again,  |
                                                                                                         |
                                                                                                         |                                                                                                         
         Am                                               Am                                             |
       E-------0----------0----|-------0----------------|-------0----------0----|-------0----------------|
       B-------------3---------|-1-----------0--------0-|-------------3---------|-1-----------0--------0-|
 G1    G----------2-----2----2-|----2-----2-----2-------|----------2-----2----2-|----2-----2-----2-------|  
       D-----2-----------------|-------------------2----|-----2-----------------|-------------------2----|
       A--0--------------------|------------------------|--0--------------------|------------------------|
       E-----------------------|------------------------|-----------------------|------------------------|
                                                                                                         |
LYRICS          ____________________________________________                                    and fade |
                                                                                                         |
                                                                                                         |         
          C                                               Em                                             |
       E-------0----------0----|-------0----------------|-------0----------0----|-------0----------------||
       B-------------3---------|-1-----------0----------|-------------3---------|-1-----------0----------||
 G1    G----0-----0-----0----0-|----0-----0-----0-----0-|----------0-----0----0-|----0-----0-----0-----0-||  
       D-----------------------|-------------------2----|-----2-----------------|-------------------2----||
       A--3--------------------|------------------------|-----------------------|------------------------||
       E-----------------------|------------------------|--0--------------------|------------------------||
                                                                                                         ||
LYRICS         _____________________________          out       _________________________        again,  ||
                                                                                                         ||
                                                                                                         ||                                                                                                         
.........................................................................................................||


............
Verses 2+3 ...............................................................................................  
                                                                                                         |         
         Am                                              Am                                              |   
       E-------0----------0----|-------0----------------|-------0----------0----|-------0----------------|
       B-------------3---------|-1-----------0----------|-------------3---------|-1-----------0----------|
 G1    G----------2-----2----2-|----2-----2-----2-----2-|----------2-----2----2-|----2-----2-----2-----2-|  
       D-----2-----------------|-------------------2----|-----2-----------------|-------------------2----|
       A--0--------------------|------------------------|--0--------------------|------------------------|
       E-----------------------|------------------------|-----------------------|------------------------|
                                                                                                         |
       E-----------------------|------------------------|-----------------------|------------------------|
       B-------1-----0---------|-------------0----------|-------1-----0---------|-------------0----------|
 G2    G------------------2----|-------2-----------1----|------------------2----|-------2-----------1----|
       D-----2----2-----2----2-|-2--2-----2-----2-----2-|-----2----2----2-----2-|-2--2-----2-----2-----2-|
       A--0--------------------|------------------------|--0--------------------|------------------------|
       E-----------------------|------------------------|-----------------------|------------------------|                
                                                                                                         |
LYRICS  2.This      ma -        chine       will,              will  not com-mu - ni -       cate these  |
        3.Cracked   eggs,       dead        birds,            scream as they fight for      life,        |         
                                                                                                         |                                                                                                         
         Am                                               Am                                             |
       E-------0----------0----|-------0----------------|-------0----------0----|-------0----------------|
       B-------------3---------|-1-----------0----------|-------------3---------|-1-----------0----------|
 G1    G----------2-----2----2-|----2-----2-----2-----2-|----------2-----2----2-|----2-----2-----2-----2-|  
       D-----2-----------------|-------------------2----|-----2-----------------|-------------------2----|
       A--0--------------------|------------------------|--0--------------------|------------------------|
       E-----------------------|------------------------|-----------------------|------------------------|
                                                                                                         |         
       E-----------------------|------------------------|-----------------------|------------------------|
       B-------1-----0---------|-------------0----------|-------1-----0---------|-------------0----------|
 G2    G------------------2----|-------2-----------1----|------------------2----|-------2-----------1----|
       D-----2----2-----2----2-|-2--2-----2-----2-----2-|-----2----2----2-----2-|-2--2-----2-----2-----2-|
       A--0--------------------|------------------------|--0--------------------|------------------------|
       E-----------------------|------------------------|-----------------------|------------------------|
                                                                                                         |                                                                           
LYRICS  2.thoughts  and  the    strain       I    am un  -  der,                                         |
        3.I         can         feel         death,             can   see it's be - ady    eyes,         |                                           
                                                                                                         |
         Em                                               Em                                             |
       E-------0----------0----|-------0----------------|-------0----------0----|-------0----------------|
       B-------------3---------|-1-----------0----------|-------------3---------|-1-----------0----------|
 G1    G----------0-----0----0-|----0-----0-----0-----0-|----------0-----0----0-|----0-----0-----0-----0-|  
       D-----------------------|-------------------2----|-----------------------|-------------------2----|
       A-----2-----------------|------------------------|-----2-----------------|------------------------|
       E--0--------------------|------------------------|--0--------------------|------------------------|                                                                                                         
                                                                                                         |
       E-------0----------0----|-------0----------------|-------0----------0----|-------0----------------|
       B-------------3---------|-1-----------0--------0-|-------------3---------|-1-----------0--------0-|
 G1    G----------0-----0----0-|----0-----0-----0-------|----------0-----0----0-|----0-----0-----0-------|  
       D-----2-----------------|-------------------2----|-----2-----------------|-------------------2----|
       A-----------------------|------------------------|-----------------------|------------------------|
       E--0--------------------|------------------------|--0--------------------|------------------------|
                                                                                                         |
LYRICS  2.be   a world child,   form   a  cir-cle    be - fore we all                            go un - | 
        3.All these things  in-to  po - si - tion,       all these things we'll one  day swal-low whole. |                 
                                                                                                         |
         Am                                               Am                                             |
       E-------0----------0----|-------0----------------|-------0----------0----|-------0----------------||
       B-------------3---------|-1-----------0----------|-------------3---------|-1-----------0----------||
 G1    G----------2-----2----2-|----2-----2-----2-----2-|----------2-----2----2-|----2-----2-----2-----0-|| 
       D-----2-----------------|-------------------2----|-----2-----------------|-------------------2----||
       A--0--------------------|------------------------|--0--------------------|------------------------||
       E-----------------------|------------------------|-----------------------|------------------------||
                                                                                                         ||                                                                                               
       E-----------------------|------------------------|-----------------------|------------------------||
       B-------1-----0---------|-------------0----------|-------1-----0---------|-------------0----------||
 G2    G------------------2----|-------2-----------1----|------------------2----|-------2-----------1----||
       D-----2----2-----2----2-|-2--2-----2-----2-----2-|-----2----2----2-----2-|-2--2-----2-----2-----2-||
       A--0--------------------|------------------------|--0--------------------|------------------------||
       E-----------------------|------------------------|-----------------------|------------------------||
                                                                                                         ||
LYRICS  2. - der                                                                                And fade ||
        3.                                                                                      And fade ||                                                                                                 
.........................................................................................................||


..........
Chorus 2 .................................................................................................
                                                                                                         |
          C                                               Em                                             |
       E-------0----------0----|-------0----------------|-------0----------0----|-------0----------------|
       B-------------3---------|-1-----------0----------|-------------3---------|-1-----------0----------|
 G1    G----0-----0-----0----0-|----0-----0-----0-----0-|----------0-----0----0-|----0-----0-----0-----0-|  
       D-----------------------|-------------------2----|-----2-----------------|-------------------2----|
       A--3--------------------|------------------------|-----------------------|------------------------|
       E-----------------------|------------------------|--0--------------------|------------------------|
                                                                                                         |
       E-----------------------|------------------------|-----------------------|------------------------|
       B-------13----12--------|-------------12----13---|-------13----12--------|-------------12----13---|
 G2    G------------------12---|-------12---------------|------------------12---|-------12---------------|
       D-----------------------|-14---------------------|-----------------------|-14---------------------|
       A-----------------------|------------------------|-----------------------|------------------------|
       E--12-------------------|------------------------|--12-------------------|------------------------| 
                                                                                                         |                                                                                                        
LYRICS         _____________________________          out       _________________________        again,  |
                                                                                                         |
                                                                                                         |                                                                                                         
         Am                                               Am                                             |
       E-------0----------0----|-------0----------------|-------0----------0----|-------0----------------|
       B-------------3---------|-1-----------0--------0-|-------------3---------|-1-----------0--------0-|
 G1    G----------2-----2----2-|----2-----2-----2-------|----------2-----2----2-|----2-----2-----2-------|  
       D-----2-----------------|-------------------2----|-----2-----------------|-------------------2----|
       A--0--------------------|------------------------|--0--------------------|------------------------|
       E-----------------------|------------------------|-----------------------|------------------------|
                                                                                                         |
       E-----------------------|-12---------------------|-----------------------|-12---------------------|
       B-------13----12--------|-------13----12---------|-------13----12--------|-------13----12---------|
 G2    G--14--------------14---|-------------------14---|--14--------------14---|-------------------14---|
       D-----14----------------|------------------------|-----14----------------|------------------------|
       A-----------------------|------------------------|-----------------------|------------------------|
       E-----------------------|------------------------|-----------------------|------------------------|
                                                                                                         |
LYRICS          ____________________________________________                                    and fade |
                                                                                                         |
                                                                                                         |         
          C                                               Em                                             |
       E-------0----------0----|-------0----------------|-------0----------0----|-------0----------------|
       B-------------3---------|-1-----------0----------|-------------3---------|-1-----------0----------|
 G1    G----0-----0-----0----0-|----0-----0-----0-----0-|----------0-----0----0-|----0-----0-----0-----0-|  
       D-----------------------|-------------------2----|-----2-----------------|-------------------2----|
       A--3--------------------|------------------------|-----------------------|------------------------|
       E-----------------------|------------------------|--0--------------------|------------------------|                       
                                                                                                         |
       E-----------------------|------------------------|-----------------------|------------------------|
       B-------13----12--------|-------------12----13---|-------13----12--------|-------------12----13---|
 G2    G--12--------------12---|-------12---------------|--12--------------12---|-------12---------------|
       D-----14----------------|-14---------------------|-----14----------------|-14---------------------|
       A-----------------------|------------------------|-----------------------|------------------------|
       E-----------------------|------------------------|-----------------------|------------------------|
                                                                                                         |                                              
LYRICS         _____________________________          out       _________________________      a -       |
                                                                                                         |
                                                                                                         | 
          Am                                              Am                                             |
       E-------0----------0----|-------0----------------|-------0----------0----|-------0----------------||
       B-------------3---------|-1-----------0--------0-|-------------3---------|-1-----------0--------0-||
 G1    G----------2-----2----2-|----2-----2-----2-------|----------2-----2----2-|----2-----2-----2-------|| 
       D-----2-----------------|-------------------2----|-----2-----------------|-------------------2----||
       A--0--------------------|------------------------|--0--------------------|------------------------||
       E-----------------------|------------------------|-----------------------|------------------------||
                                                                                                         ||
       E-----------------------|-12---------------------|-----------------------|------------------------||
       B-------13----12--------|-------13----12---------|-------13----12--------|------------------------||
 G2    G--14--------------14---|-------------------14---|--14------14------14---|-12----------12----14---||
       D-----14----------------|----------------------14|-----14----------------|-------14---------------||
       A-----------------------|------------------------|-----------------------|------------------------||
       E-----------------------|------------------------|-----------------------|------------------------||
                                                                                                         ||
LYRICS    gain. -                                                                                        ||                                                                                                                        
.........................................................................................................||


........
Bridge ...................................................................................................
                                                                                                         |
          C                                               Em                                             |
       E-------0----------0----|-------0----------------|-------0----------0----|-------0----------------|
       B-------------3---------|-1-----------0----------|-------------3---------|-1-----------0----------|
 G1    G----0-----0-----0----0-|----0-----0-----0-----0-|----------0-----0----0-|----0-----0-----0-----0-|  
       D-----------------------|-------------------2----|-----2-----------------|-------------------2----|
       A--3--------------------|------------------------|-----------------------|------------------------|
       E-----------------------|------------------------|--0--------------------|------------------------|                       
                                                                                                         |
       E-----------------------|------------------------|-----------------------|------------------------|
       B-------13----12--------|-------------12----13---|-------13----12--------|-------------12----13---|
 G2    G------------------12---|-------12---------------|------------------12---|-------12---------------|
       D-----14----------------|-14---------------------|-----------------------|-12---------------------|
       A--15-------------------|------------------------|-----------------------|------------------------|
       E-----------------------|------------------------|--12-------------------|------------------------|
                                                                                                         |                                              
LYRICS    Mm        _______________________________        Oh       _______________________________      |
                                                                                                         |
         Am                                               Am                                             |
       E-------0----------0----|-------0----------------|-------0----------0----|-------0----------------|
       B-------------3---------|-1-----------0--------0-|-------------3---------|-1-----------0--------0-|
 G1    G----------2-----2----2-|----2-----2-----2-------|----------2-----2----2-|----2-----2-----2-------|  
       D-----2-----------------|-------------------2----|-----2-----------------|-------------------2----|
       A--0--------------------|------------------------|--0--------------------|------------------------|
       E-----------------------|------------------------|-----------------------|------------------------|
                                                                                                         |
       E-----------------------|-12---------------------|-----------------------|-12---------------------|
       B-------13----12--------|-------13----12---------|-------13----12--------|-------13----12---------|
 G2    G--14--------------14---|-------------------14---|--14--------------14---|----------------14-12---|
       D-----14----------------|------------------------|-----------------------|------------------------|
       A-----------------------|------------------------|-----------------------|------------------------|
       E-----------------------|------------------------|-----------------------|------------------------|
                                                                                                         |
LYRICS    Oh         ______________________________               __________________________             |
                                                                                                         |
          C                                               Em                                             |
       E-------0----------0----|-------0----------------|-------0----------0----|-------0----------------||
       B-------------3---------|-1-----------0----------|-------------3---------|-1-----------0----------||
 G1    G----0-----0-----0----0-|----0-----0-----0-----0-|----------0-----0----0-|----0-----0-----0-----0-|| 
       D-----------------------|-------------------2----|-----2-----------------|-------------------2----||
       A--3--------------------|------------------------|-----------------------|------------------------||
       E-----------------------|------------------------|--0--------------------|------------------------||                      
                                                                                                         ||
       E-----------------------|------------------------|-----------------------|------------------------||
       B-------13----12--------|-------------12----13---|-------13----12--------|-------------12----13---||
 G2    G------------------12---|-------12---------------|------------------12---|-------12---------------||
       D-----14----------------|-14---------------------|-----------------------|-12---------------------||
       A--15-------------------|------------------------|-----------------------|------------------------||
       E-----------------------|------------------------|--12-------------------|------------------------||
                                                                                                         ||                                             
LYRICS    Mm        _______________________________        Oh       _______________________________      ||
                                                                                                         ||
.........................................................................................................||


.......
Outro ....................................................................................................
                                                                                                         |
         Am                                               Am                                             |
       E-------0----------0----|-------0----------------|-------0----------0----|-------0----------------|
       B-------------3---------|-1-----------0--------0-|-------------3---------|-1-----------0--------0-|
 G1    G----------2-----2----2-|----2-----2-----2-------|----------2-----2----2-|----2-----2-----2-------|  
       D-----2-----------------|-------------------2----|-----2-----------------|-------------------2----|
       A--0--------------------|------------------------|--0--------------------|------------------------|
       E-----------------------|------------------------|-----------------------|------------------------|
                                                                                                         |
       E-----------------------|-12---------------------|-----------------------|------------------------|
       B-------13----12--------|-------13----12---------|-------13----12--------|------------------------|
 G2    G--14--------------14---|----------------14----14|------------------14---|-12----------12----14---|
       D-----14----------------|-------------------14---|--14-------------------|-------14---------------|
       A-----------------------|------------------------|-----------------------|------------------------|
       E-----------------------|------------------------|-----------------------|------------------------|
                                                                                                         |
LYRICS    Ah       ________________________________           ___________________________          Im -  |
                                                                                                         |
          G                                               Em                                             |
       E-------3----------3----|-------3----------------|-------0----------0----|-------0----------------|
       B-------------3---------|-1-----------0----------|-------------3---------|-1-----------0----------|
 G1    G----0-----0-----0----0-|----0-----0-----0-----0-|----------0-----0----0-|----0-----0-----0-----0-|  
       D-----------------------|-------------------0----|-----2-----------------|-------------------2----|
       A-----------------------|------------------------|-----------------------|------------------------|
       E--3--------------------|------------------------|--0--------------------|------------------------|                       
                                                                                                         |
       E-----------------------|------------------------|-----------------------|------------------------|
       B-------13----12--------|-------------12----13---|-------13----12--------|-------------12----13---|
 G2    G------------------12---|-------12---------------|------------------13---|-------13---------------|
       D-----14----------------|-14---------------------|--14-------------------|-14---------------------|
       A--15-------------------|------------------------|-----------------------|------------------------|
       E-----------------------|------------------------|-----------------------|------------------------|
                                                                                                         |                                              
LYRICS    merse     ______________________         your    soul     ___________________________    in    |
                                                                                                         |
          Am                                              Am                                             |
       E-------0----------0----|-------0----------------|-------0----------0----|-------0----------------|
       B-------------3---------|-1-----------0--------0-|-------------3---------|-1-----------0--------0-|
 G1    G----------2-----2----2-|----2-----2-----2-------|----------2-----2----2-|----2-----2-----2-------|  
       D-----2-----------------|-------------------2----|-----2-----------------|-------------------2----|
       A--0--------------------|------------------------|--0--------------------|------------------------|
       E-----------------------|------------------------|-----------------------|------------------------|
                                                                                                         |
       E-----------------------|-12---------------------|-----------------------|-12---------------------|
       B-------13----12--------|-------13----12---------|-------13----12--------|-------13----12---------|
 G2    G--14--------------14---|-------------------14---|--14--------------14---|-------------------14---|
       D-----14----------------|------------------------|-----14----------------|------------------------|
       A-----------------------|------------------------|-----------------------|------------------------|
       E-----------------------|------------------------|-----------------------|------------------------|
                                                                                                         |
LYRICS    love,     ________________________________         _____________________________     im -      |   
                                                                                                         |
          G                                               Em                                             |
       E-------3----------3----|-------3----------------|-------0----------0----|-------0----------------|
       B-------------3---------|-1-----------0----------|-------------3---------|-1-----------0----------|
 G1    G----0-----0-----0----0-|----0-----0-----0-----0-|----------0-----0----0-|----0-----0-----0-----0-|  
       D-----------------------|-------------------0----|-----2-----------------|-------------------2----|
       A-----------------------|------------------------|-----------------------|------------------------|
       E--3--------------------|------------------------|--0--------------------|------------------------|                       
                                                                                                         |
       E-----------------------|------------------------|-----------------------|------------------------|
       B-------13----12--------|-------------12----13---|-------13----12--------|-------------12----13---|
 G2    G------------------12---|-------12---------------|------------------13---|-------13---------------|
       D-----14----------------|-14---------------------|--14-------------------|-14---------------------|
       A--15-------------------|------------------------|-----------------------|------------------------|
       E-----------------------|------------------------|-----------------------|------------------------|
                                                                                                         |                                              
LYRICS    merse     ______________________         your    soul     ___________________________    in    |
                                                                                                         |
         Am                                                                                              |
       E-------0----------0----|-------0----------------||...............................................|                                                
       B-------------3---------|-1-----------0----------||
 G1    G----------2-----2----2-|----2-----2-----2-------||
       D-----2-----------------|-------------------2----||
       A--0--------------------|----------------------0-||
       E-----------------------|------------------------||
                                                        ||
LYRICS    love.    __________________________________   ||
                                                        ||
........................................................||



There it is, please let me know if i've made any mistakes and I'll do my best to change them.





Comments


Popular Radiohead tabs & chords
High And Dry 3 Bass Tabs
My Iron Lung Bass Tabs
The Butcher Bass Tabs
The Daily Mail Chords
Kinetic Tabs
Motion Picture Soundtrack Accoustic Tabs
Pearly Tabs
Punchdrunk Lovesick Singalong Tabs
Pyramid Song Tabs
Last Flowers Ukulele


Song lyrics



↑ Back to top | Tablatures and chords are parodies/interpretations of the original songs. You may use it for private study, scholarship, research or language learning purposes only
© 2014 AZChords.com Contact us | Privacy policy | DMCA | Add/correct tabs | Request tabs | Top 50 tabs