>
 >
Sail To The Moon

Sail To The Moon Guitar Tabs

Radiohead - Sail To The Moon chords, tabs, tablatures, lyrics

Guitar lessons | Add/correct | Request | Top 50 tabs Artists:  A B C D E F G H I J K L M N O P Q R S T U V W X Y Z 0-9

Sail To The Moon Guitar Tabs – Radiohead

CD, Sheet music, Poster

Do you like Sail To The Moon? Share with your friends now
TabsTabs v2Tabs v3Tabs v4
Radiohead - Sail to the Moon Tab

                                       -Intro-

e|---4---4---4---4---4---5---4------------|---3---1---0-----------0---0---0---0----|
B|---5---5---5---5---5---5---5------------|---5-----------1-------1---1---1---1----|
G|---6---6---6---6---6---6---6------------|---5-------------------2---2---2---2----|
D|---7---7---7---7---7---7---7------------|---5---------------3---3---3---3---3----|
A|---0---0--------------------------------|----------------------------------------|
E|-------0--------------------------------|----------------------------------------|

e|---4---4---4---4---5---4----------------|---3---1---0---1-(0)--------------------|
B|---5---5---5---5---5---5----------------|----------------------------------------|
G|---6---6---6---6---6---6----------------|----------------------------------------|
D|---7---7---7---7---7---7----------------|---------------------------3---3--------|
A|----------------------------------------|----------------------------------------|
E|----------------------------------------|----------------------------------------|

e|---4---4---4---4---5---4----------------|---3---1---0-----------0----------------|
B|---5---5---5---5---5---5----------------|---5-----------1-------1----------------|
G|---6---6---6---6---6---6----------------|---5-------------------2----------------|
D|---7---7---7---7---7---7----------------|---5---------------3---3----------------|
A|---0------------------------------------|----------------------------------------|
E|----------------------------------------|----------------------------------------|

                                    -Verse No. 1-
"I sucked the moon..."
e|-------4---5---7------------------------|----------------------------------------|
B|-------3-------5---5--------------------|-------5-------5---6---5-------5--------|
G|-----------5---4------------------------|---5-------4---------------5------------|
D|----------------------------------------|----------------------------------------|
A|---0------------------------------------|----------------------------------------|
E|----------------------------------------|----------------------------------------|

e|-------4---5---7------------------------|----------------------------------------|
B|-------3-------5---5--------------------|-------5-------5---6---5-------5--------|
G|-----------5---4------------------------|---5-------4---------------5------------|
D|----------------------------------------|----------------------------------------|
A|---0------------------------------------|----------------------------------------|
E|----------------------------------------|----------------------------------------|

e|-------4---5---7------------------------|----------------------------------------|
B|-------3-------5---5--------------------|-------5-------5---6---5-------5--------|
G|-----------5---4------------------------|---5-------4---------------5------------|
D|----------------------------------------|----------------------------------------|
A|---0------------------------------------|----------------------------------------|
E|----------------------------------------|----------------------------------------|

e|-------4---5---7------------------------|----------------------------------------|
B|-------3-------5---5--------------------|-------5-------5---6---5----------------|
G|-----------5---4------------------------|---5-------4----------------------------|
D|----------------------------------------|----------------------------------------|
A|---0------------------------------------|---------------------------3------------|
E|----------------------------------------|----------------------------------------|

e|-------3-------8------------------------|--------3-------7---------------0-------|
B|---5-------5-------8--------------------|----5-------5-------8-------------------|
G|-----------------------9----------------|------------------------9---------------|
D|----------------------------------------|----------------------------------------|
A|---------------------------2------------|----------------------------0-----------|
E|----------------------------------------|----------------------------------------|

e|-------4---5---7------------------------|----------------------------------------|
B|-------3-------5---5--------------------|-------5-------5---6---5-------5--------|
G|-----------5---4------------------------|---5-------4---------------5------------|
D|----------------------------------------|----------------------------------------|
A|----------------------------------------|----------------------------------------|
E|----------------------------------------|----------------------------------------|

e|-------4---5---7------------------------|----------------------------------------|
B|-------3-------5---5--------------------|-------5-------5---6---5-------5--------|
G|-----------5---4------------------------|---5-------4---------------5------------|
D|----------------------------------------|----------------------------------------|
A|---0------------------------------------|----------------------------------------|
E|----------------------------------------|----------------------------------------|

e|-------4---5---7------------------------|----------------------------------------|
B|-------3-------5---5--------------------|-------5-------5---6---5----------------|
G|-----------5---4------------------------|---5-------4----------------------------|
D|----------------------------------------|----------------------------------------|
A|---0------------------------------------|----------------------------------------|
E|----------------------------------------|----------------------------------------|

e|-------3-------8------------------------|--------3-------7-----------------------|
B|---5-------5-------8--------------------|----5-------5-------8-------------------|
G|-----------------------9----------------|------------------------9---------------|
D|----------------------------------------|----------------------------------------|
A|---------------------------2------------|----------------------------------------|
E|----------------------------------------|----------------------------------------|

                                      -Bridge-
"Staaaaaaaaaaaaaaaaaaaaaaaaaaaars..."
e|----------------------------------------|----------------------------------------|
B|---2---4---4---2---2---4----------------|---5---7---7---5---8--------------------|
G|---1---1---1---1---1---1----------------|---4---4---4---4---5---7---7---5--------|
D|----------------------------------------|----------------------------------------|
A|----------------------------------------|----------------------------------------|
E|----------------------------------------|----------------------------------------|

e|----------------------------------------|-----(repeat last three measures.)------|
B|----------------------------------------|----------------------------------------|
G|---5-(7)---4---4-(5)---4---2---2---0----|----------------------------------------|
D|----------------------------------------|----------------------------------------|
A|----------------------------------------|----------------------------------------|
E|----------------------------------------|----------------------------------------|

                                    -Verse No. 2-

e|----------------------------------------|---(repeat previous measure 2 times.)---|
B|-------3---1-------1---0---1------------|----------------------------------------|
G|----------------------------------------|----------------------------------------|
D|----------------------------------------|----------------------------------------|
A|---0------------------------------------|----------------------------------------|
E|----------------------------------------|----------------------------------------|

e|---1---0--------------------------------|-------0-------0-------0-------0-------0|
B|-----------1----------------------------|---6-------6-------6-------6-------6----|
G|----------------------------------------|----------------------------------------|
D|----------------------------------------|----------------------------------------|
A|----------------------------------------|----------------------------------------|
E|----------------------------------------|----------------------------------------|

e|-------3-------3-------3-------3-------3|-------5-------5------------------------|
B|---7-------7-------7-------7-------7----|---8-------8-----------3---1---1---0---1|
G|----------------------------------------|----------------------------------------|
D|----------------------------------------|----------------------------------------|
A|----------------------------------------|-------------------0--------------------|
E|----------------------------------------|----------------------------------------|

e|----------------------------------------|---0---4---5---7------------------------|
B|-------3---1-------1---0---1------------|-------3-------5---5-------5-------5----|
G|----------------------------------------|-----------5---4-------5-------4--------|
D|----------------------------------------|----------------------------------------|
A|---0------------------------------------|----------------------------------------|
E|----------------------------------------|----------------------------------------|

e|----------------------------------------|----------------------------------------|
B|---6---5-------5------------------------|-------3---1---1---0---1----------------|
G|-----------5----------------------------|----------------------------------------|
D|----------------------------------------|----------------------------------------|
A|----------------------------------------|---0------------------------------------|
E|----------------------------------------|----------------------------------------|

e|---------------1---0--------------------|------0-----0-----0-----0-----0-----0---|
B|-------3---1-----------1----------------|---6-----6-----6-----6-----6-----6-----6|
G|----------------------------------------|----------------------------------------|
D|----------------------------------------|----------------------------------------|
A|---0------------------------------------|----------------------------------------|
E|----------------------------------------|----------------------------------------|

e|------3------3-----3------3-------3-----|-------5-------5------------------------|
B|---7-----7------7-----7-------7------7--|---8-------8-----------3---1---1---3---1|
G|----------------------------------------|----------------------------------------|
D|----------------------------------------|----------------------------------------|
A|----------------------------------------|-------------------0--------------------|
E|----------------------------------------|----------------------------------------|

e|--------------------1---0---------------|
B|-------3---1---1------------1-----------|
G|----------------------------------------|
D|----------------------------------------|
A|---0------------------------------------|
E|----------------------------------------|

e|-------3-------8------------------------|--------3-------7-----------------------|
B|---5-------5-------8--------------------|----5-------5-------8-------------------|
G|-----------------------9----------------|------------------------9---------------|
D|----------------------------------------|----------------------------------------|
A|---------------------------2------------|----------------------------------------|
E|----------------------------------------|----------------------------------------|

                       -Outro, transposed from piano to guitar-

e|-----------------------------------------|--3---3---3---3---3---7---7---7---11-11|
B|-----------------------------------------|--4---4---4---4---4---8---8---8---12-12|
G|---0---0---0---0---0---4---4---4---8-----|--5---5---5---5---5---9---9---9---12-12|
D|---1---1---1---1---1---5---5---5---9-----|--6---6---6---6---6---10--10--10--13-13|
A|---3---3---3---3---3---7---7---7---10----|---------------------------------------|
E|---4---4---4---4---4---8---8---8---11----|---------------------------------------|

e|---15-----------------------------------| NOTE: Some of the counts in this
B|---16-----------------------------------| tab may be off, and some notes have been
G|---17-----------------------------------| acknowledged as missing -- some guess-
D|---18-----------------------------------| work may be required.
A|----------------------------------------|
E|----------------------------------------|





Comments


Popular Radiohead tabs & chords
Fog Bass Tabs
Like Spinning Plates Bass Tabs
Lotus Flower Bass Tabs
Go Slowly Chords
High And Dry Drum Tabs
Airbag (Intro) Tabs
How To Disappear Completely And Never Be Found Tabs
I Might Be Wrong (Solo) Tabs
House Of Cards Chords Ukulele
Just Ukulele


Song lyrics



↑ Back to top | Tablatures and chords are parodies/interpretations of the original songs. You may use it for private study, scholarship, research or language learning purposes only
© 2014 AZChords.com Contact us | Privacy policy | DMCA | Add/correct tabs | Request tabs | Top 50 tabs