» » »

Romeo And Juliet Tabs (ver.1)

Artists:  A B C D E F G H I J K L M N O P Q R S T U V W X Y Z # 

Romeo And Juliet Tabs (ver.1)

Radiohead
Rating:
0/5 (0 votes)

Tabs too difficult? Try these video lessons and learn fast.
                Standard tuning.
I'm aware this isn't the title. Actual title is Talk Show Host.

Slide= >
Vibrate= ~

e--------------------------------------------|
B--------------------------------------------|
G--------------------------8-8->--7->---5~---|
D--------------------------8-8->--7->---5~---|
A--------------------------------------------|
E------6->-8---------------------------------| 2x

e--------------------------------------------|
B--------------------------------------------|
G---------------8-8->--7->---5~--------------|
D---------------8-8->--7->---5~--------------|
A--------------------------------------------|
E--------------------------------------------| 6x


e--------------------------------------------|
B------------------------4-------------------|
G--------------------------------------------|
D----------------6--5~-----------------------|
A--------------------------------------------|
E----------4~--------------------------------| 2x


e--------------------------------------------|
B--------------------------------------------|
G---------------8-8->--7->---5~--------------|
D---------------8-8->--7->---5~--------------|
A--------------------------------------------|
E--------------------------------------------| 7x

e--------------------------------------------|
B------------------------4-------------------|
G--------------------------------------------|
D----------------6--5~-----------------------|
A--------------------------------------------|
E----------4~--------------------------------| 2x

e--------------------------------------------|
B--------------------------------------------|
G---------------8-8->--7->---5~--------------|
D---------------8-8->--7->---5~--------------|
A--------------------------------------------|
E--------------------------------------------| 7x

e--------------------------------------------|
B------------------------4-------------------|
G--------------------------------------------|
D----------------6--5~-----------------------|
A--------------------------------------------|
E----------4~--------------------------------| 2x


And so on and so forth. The same keeps repeating.
Hope you enjoy.
            
Tabs too difficult? Try these video lessons and learn fast.




comments powered by Disqus
↑ Back to top | Tablatures and chords are parodies/interpretations of the original songs. You may use it for private study, scholarship, research or language learning purposes only