>
 >
Paranoid Android

Paranoid Android Bass Tabs

Radiohead - Paranoid Android chords, tabs, tablatures, lyrics

Guitar lessons | Add/correct | Request | Top 50 tabs Artists:  A B C D E F G H I J K L M N O P Q R S T U V W X Y Z 0-9

Paranoid Android Bass Tabs – Radiohead

CD, Sheet music, Poster

Do you like Paranoid Android? Share with your friends now
Bass TabsBass Tabs v2Bass Tabs v3ChordsChords v2Chords v3Drum TabsTabsTabs v2Tabs v3Tabs v4Tabs v5Tabs v6Ukulele
STARTS IN CHORUS

                ...uh!! what´s that...
G|---------------------------------------------------------------------------|
D|---7---8--------7---8---------7---8--------8---7---------------------------|
A|----------10-----------8-------------7------------8---7-----10-------------|
E|---------------------------------------------------------------------------|

G|---------------------------------------------------------------------------|
D|---7---8--------7---8---------8---7----------------------------------------|
A|----------8------------7-------------7-------------------------------------|
E|---------------------------------------------------------------------------|

  .......when i´m king... 

G|---------------------------------------------------------------------------|
D|---------------------------------------------------------------------------|
A|---------------------------------------------------------------------------|
E|--8---8-8--8-8--6-6--8-8---1---1-1--1-1--5-5--6-6---3---3-3--3-3--5-5-6-6--|

G|---------------------------------------------------------------------------|
D|---------------------------------------------------------------------------|
A|--7-7----7-7--7-7----7----------------------------7-7----7-7--7-7----5--4--|
E|-------0-----------0-----3---3-3--3-3--5-5--6-6--------0-------------------|

G|---------------------------------------------------------------------------|
D|---------------------------------------------------------------------------|
A|---------------------------------------------------------------------------|
E|--8---8-8--8-8--6-6--8-8---1---1-1--1-1--5-5--6-6---3---3-3--3-3--5-5-6-6--|

G|---------------------------------------------------------------------------|
D|---------------------------------------------------------------------------|
A|--7-7----7-7--7-7----7----------------------------7-7----7-7--7-7----------|
E|-------0-----------0-----3---3-3--3-3--5-5--6-6--------0------------0------|


(CHORUS)


                ...uh!! what´s that...
G|---------------------------------------------------------------------------|
D|---7---8--------7---8---------7---8--------8---7---------------------------|
A|----------10-----------8-------------7------------8---7-----10-------------|
E|---------------------------------------------------------------------------|

G|---------------------------------------------------------------------------|
D|---7---8--------7---8---------8---7----------------------------------------|
A|----------8------------7-------------7-------------------------------------|
E|---------------------------------------------------------------------------|



G|---------------------------------------------------------------------------|
D|---------------------------------------------------------------------------|
A|---0----0--0----3---0------------------3---5-------------------------------|x3
E|-------------------------4---4--4------------------------------------------|

G|---------------------------------------------------------------------------|
D|---------------------------------------------------------------------------|
A|---0----0--0----3---0------------------------------------------------------|
E|-------------------------4---4---------------------------------------------|


G|------9--10----------------------------------------------------------------|
D|-----------------8--9--10----10--------------------------------------------|
A|-----------------------------------8--9--10--11----11----------------------|
E|---------------------------------------------------------------------------|


G|----9-10------------------------10-9-8-7-----------------------------------|
D|---------8-9-10--10-----------------------8-9-10--10-----------------------|
A|---------------------8-9-10-11------------------------8-9-10-11--11--------|
E|---------------------------------------------------------------------------|


G|------8--10----------------------------------------------------------------|
D|------------------10----10----------------------10--9--8------0------------|
A|-------------------------------8--9--10--11-----------------------0--------|
E|---------------------------------------------------------------------------|

ambition makes you...

G|---------------------------------------------------------------------------|
D|---------------------------------------------------------------------------|
A|---------0----0--0----3---0------------------3---5-----0-------------------|
E|-------------------------------4---4--4------------------------------------|


G|---------------------------------------------------------------------------|
D|---------------------------------------------------------------------------|
A|--3--5--------------0----0--0----3---0------------------3---5--------------|
E|----------3--4----------------------------4---4--4-------------------------|

G|---------------------------------------------------------------------------|
D|--------------10----10-----------------------------------------------------|
A|--------------------------------8--9--10--11----11-------------------------|
E|---------------------------------------------------------------------------|


G|----9-10------------------------10-9-8-7-----------------------------------|
D|---------8-9-10--10-----------------------8-9-10--10-----------------------|
A|---------------------8-9-10-11------------------------8-9-10-11--11--------|
E|---------------------------------------------------------------------------|


G|------8--10----------------------------------------------------------------|
D|------------------10----10----------------------10--9--8------0------------|
A|-------------------------------8--9--10--11-----------------------0--------|
E|---------------------------------------------------------------------------|

G|------9--10----------------------------------------------------------------|
D|-----------------8--9--10----10--------------------------------------------|
A|-----------------------------------8--9--10--11----11----------------------|
E|---------------------------------------------------------------------------|


G|----9-10------------------------10-9-8-7-----------------------------------|
D|---------8-9-10--10-----------------------8-9-10--10-----------------------|
A|---------------------8-9-10-11------------------------8-9-10-11--11--------|
E|---------------------------------------------------------------------------|


G|---------------------------------------------------------------------------|
D|----------------------------------------------------------------3----------|
A|--0-0---3-4-5-6--6--6--5-3-0-------------0-0---3-4-5-6--6--6-6-------------|
E|---------------------------------------------------------------------------|


G|---------------------------------------------------------------------------|
D|------------------------------------1---3----------------------------------|
A|------------3--3-----------------------------------------------------------|x3
E|------------------1---2---3---4--4-----------------------------------------|


G|------------------------------------5--4--3---1--2-------------------------|
D|---------------------------------------------------------------------------|
A|------------3--3-----------------------------------------------------------|
E|------------------1---2---3---4--4-----------------------------------------|


G|---------------------------------------------------------------------------|
D|----------------------------------------------------------------3----------|
A|--0-0---3-4-5-6--6--6--5-3-0-------------0-0---3-4-5-6--6--6-6-------------|
E|---------------------------------0-3-4-------------------------------------|


G|---------------------------------------------------------------------------|
D|------------------------------------1---3----------------------------------|
A|------------3--3-----------------------------------------------------------|x3
E|------------------1---2---3---4--4-----------------------------------------|


G|------------------------------------5--4--3---1--2-------------------------|
D|---------------------------------------------------------------------------|
A|------------3--3-----------------------------------------------------------|
E|------------------1---2---3---4--4-----------------------------------------|



=RESt=

rain down
rain down..


...

good love this children yeah!!
...

G|---------------------------------------------------------------------------|
D|---------------------------------------------------------------------------|
A|---------0----0--0----3---0------------------3---5-----0-------------------|x2
E|-------------------------------4---4--4------------------------------------|

G|---------------------------------------------------------------------------|
D|------------------------------------1---3----------------------------------|
A|------------3--3-----------------------------------------------------------|x3
E|------------------1---2---3---4--4-----------------------------------------|


G|------------------------------------5--4--3---1--2-------------------------|
D|---------------------------------------------------------------------------|
A|------------3--3-----------------------------------------------------------|
E|------------------1---2---3---4--4-----------------------------------------|





G|---------------------------------------------------------------------------|
D|----------------------------------------------------------------3----------|
A|--0-0---3-4-5-6--6--6--5-3-0-------------0-0---3-4-5-6--6--6-6-------------|
E|---------------------------------0-3-4-------------------------------------|


G|---------------------------------------------------------------------------|
D|------------------------------------1---3----------------------------------|
A|------------3--3-----------------------------------------------------------|x3
E|------------------1---2---3---4--4-----------------------------------------|


G|------------------------------------5--4--3--2-----------------------------|
D|---------------------------------------------------------------------------|
A|------------3--3-----------------------------------------------------------|
E|------------------1---2---3---4--4-----------------------------------------|





Comments


Popular Radiohead tabs & chords
Just 4 Bass Tabs
National Anthem Chords
Pyramid Song 1 Chords
2 2 Tabs
Exit Music 2 Tabs
Killer Cars 2 Tabs
Myxomatosis Tabs
Pulkpull Revolving Doors Tabs
There There 3 Tabs
Where I End And You Begin Tabs


Song lyrics



↑ Back to top | Tablatures and chords are parodies/interpretations of the original songs. You may use it for private study, scholarship, research or language learning purposes only
© 2014 AZChords.com Contact us | Privacy policy | DMCA | Add/correct tabs | Request tabs | Top 50 tabs