» » »

Packt Like Sardines In A Crushd Tin Box Tabs (ver.1)

Artists:  A B C D E F G H I J K L M N O P Q R S T U V W X Y Z # 

Packt Like Sardines In A Crushd Tin Box Tabs (ver.1)

Radiohead
Rating:
0/5 (0 votes)

Hard to play? Try these video lessons and learn fast.
                Song-Packt Like Sardines In A Crushd Tin Box
Artist-Radiohead

Tuning-Drop D
(DADGBe)


There is actually guitar in this song and its really just feedback and effects so I’m just going to tab out the keyboard for guitar and the chorus guitar part. Remember it's in Drop D tuning.

Intro: Guitar 1 is arranged for the bass keyboard notes
	  Guitar 2 is arranged for the high notes 


Guitar 1
-------------------------------------------
-------------------------------------------
-------------------------------------------
-------------------------------------------
--3h5-3 3-2-2-0----------------------------
--------------3-3-5-5-0-0------------------

Guitar 2

-------------------------------------------
-------------------------------------------
--7-7-7-7-7-7-7-7-7-7-7-7-7----------------
-------------------------------------------
-------------------------------------------
-------------------------------------------

Verse

Guitar 1

--------------------------------------------
--------------------------------------------
--------------------------------------------
--------------------------------------------
--3h5-3 3-2-2-0-0-3-0-5---------------------
--------------------------------------------

Guitar 2

--------------------------------------------
--------------------------------------------
------7--7---7---7---7----------------------
--------------------------------------------
--------------------------------------------
--3h5---3---0---3---5-----------------------


Chorus

Guitar 1: Carry on playing the Intro riff

Guitar 2

---------------------------------------------
------xxxxxxxxxxxxx--------------------------
-7-22-xxxxxxxxxxxxx-7-22-7-7-7-7-7-----------
------xxxxxxxxxxxxx--------------------------
------xxxxxxxxxxxxx--------------------------
------xxxxxxxxxxxxx--------------------------

(Mess around with this riff)

Repeat Verse but with Guitar 2 using feedback and palm muting and then the Chorus

Bridge has no guitar except feedback and palm muting

Play Chorus one more time

There you have it. Any mistakes and I’ll correct them.
            
Hard to play? Try these video lessons and learn fast. | Correct




comments powered by Disqus
↑ Back to top | Tablatures and chords are parodies/interpretations of the original songs. You may use it for private study, scholarship, research or language learning purposes only