» » »

Packt Like Sardines In A Crushd Tin Box Bass tabs (ver.1)

Artists:  A B C D E F G H I J K L M N O P Q R S T U V W X Y Z # 

Packt Like Sardines In A Crushd Tin Box Bass tabs (ver.1)

Radiohead
Rating:
0/5 (0 votes)

Hard to play? Try these video lessons and learn fast.
                Packt Like Sardines In A Crushd Tin Box
By Radiohead
Track 1 of their album Amnesiac

Note: I take no credit for this tab becuase I found it off another site.
      I'm just putting it here to add more Radiohead bass tabs to this site.

Tuning: Drop D (DADG)

Drum intro for about 36 seconds before bass comes in.

Main Riff
G|---------------------------------|
D|---------------------------------|
A|-3h5--3--33--2--0h2--0-----------|
D|-----------------------3--3/5-30-|

Variation
G|-------------------------------|
D|-----------------------------0-|
A|-3h5--3--33--2--5------0-3-----|
D|------------------3-5------3---|


| /  slide up
| \  slide down
| h  hammer-on
| p  pull-off
| ~  vibrato
| +  harmonic
| x  Mute note
            
Hard to play? Try these video lessons and learn fast. | Correct




comments powered by Disqus
↑ Back to top | Tablatures and chords are parodies/interpretations of the original songs. You may use it for private study, scholarship, research or language learning purposes only