» » »

No Surprises Tabs (ver.7)

Artists:  A B C D E F G H I J K L M N O P Q R S T U V W X Y Z # 

No Surprises Tabs (ver.7)

Radiohead
Rating:
0/5 (0 votes)

Hard to play? Try these video lessons and learn fast.
                ----------------------------------------------------------------------------
----------------------------------------------------------------------------


Tuning:Standard

Sorry, but I've only tabbed guitar 1!

Guitar 1:

Intro:
E|--16-----------16-----------16----------------12-14-|
B|--------17-----------17-----------17-------13-------|
G|-----16----16-----16----16-----16----16-14----------|    x4
D|----------------------------------------------------|
A|----------------------------------------------------|
E|----------------------------------------------------|


Verse:

E|--16----------16----------16----------16------------|
B|--------17----------17----------17----------17------|
G|-----16----16----16----16----16----16----16----16---|
D|----------------------------------------------------|
A|----------------------------------------------------|
E|----------------------------------------------------|

E|--16----------16----------16----------16------------|
B|--------17----------17----------17----------17------|
G|-----14----14----14----14----14----14----14----14---|
D|----------------------------------------------------|
A|----------------------------------------------------|
E|----------------------------------------------------|

E|--17----------17------------------------------------|
B|--------17----------17----17-17-16------------------|
G|-----14----14----14----14----------16---------------|
D|--------------------------------------16-18---------|
A|----------------------------------------------------|
E|----------------------------------------------------|

Intro x1
Verse x1
Intro x1

Pre-chorus:
E|--16----------16----------16----------16------------|
B|--------17----------17----------17----------17------|
G|-----16----16----16----16----16----16----16----16---|
D|----------------------------------------------------|
A|----------------------------------------------------|
E|----------------------------------------------------|

E|--16----------16----------16----------16------------|
B|--------17----------17----------17----------17------|
G|-----14----14----14----14----14----14----14----14---|
D|----------------------------------------------------|
A|----------------------------------------------------|
E|----------------------------------------------------|

Chorus:
E|----------------------------------------------------|
B|--14-14-10-10-9-9-7-7-5-4-4-5-7---------------------|
G|----------------------------------------------------|
D|----------------------------------------------------|    x3
A|----------------------------------------------------|
E|----------------------------------------------------|

"Silent, Silent"
Through this play:
Intro x2
Pre-chorus x1
Chorus x1
And then Intro x1

Solo:
E|------0-2-0-------0-2-3-2-0-----------2-0-----------|
B|----4-------4---1-----------1-----4-------4---------|
G|--4-----------4---------------4-4---4-------4-------|
D|----------------------------------------------------|
A|----------------------------------------------------|
E|----------------------------------------------------|

E|----0-2-3-2-0-----------------0-2-------------------|
B|--1-----------1-------------3-----------------------|
G|----------------6-------4-5-------------------------|
D|------------------7-6-7-----------------------------|
A|----------------------------------------------------|
E|----------------------------------------------------|

Pre-chorus and then Chorus again.
Then play intro x2 and then end on:
E|--16--|
B|--17--|
G|--16--|
D|------|
A|------|
E|------|

BlocPartyFreak. Comments and Corrections welcome
            
Hard to play? Try these video lessons and learn fast. | Correct




comments powered by Disqus
↑ Back to top | Tablatures and chords are parodies/interpretations of the original songs. You may use it for private study, scholarship, research or language learning purposes only