» » »

No Surprises Tabs (ver.3)

Artists:  A B C D E F G H I J K L M N O P Q R S T U V W X Y Z # 

No Surprises Tabs (ver.3)

Radiohead
Rating:
0/5 (0 votes)

Hard to play? Try these video lessons and learn fast.
                (Intro)
This work is presented by Celine a.k.a Celosh. 


-----5-----------------------5---------------------------------------
--------------6----------------------------6-------------------------
---------5---------5--------------5-----------------5------------------

-----5--------------------------------------------1-------2-----------
--------------6---------------------------3--------------------------
---------5---------5----------------2---------------------------------

-----5-----------------------5---------------------------------------
--------------6----------------------------6-------------------------
---------5---------5--------------5-----------------5------------------

-----5--------------------------------------------1-------2-----------
--------------6---------------------------3--------------------------
---------5---------5----------------2---------------------------------
            
Hard to play? Try these video lessons and learn fast. | Correct




comments powered by Disqus
↑ Back to top | Tablatures and chords are parodies/interpretations of the original songs. You may use it for private study, scholarship, research or language learning purposes only